100 Pipers

/ / F / / F / / Bb/ / Bb/ / F / / F / / C / / C / / F / / F / /

----0---------------------5-3---0-0-----0-----------0-----------

1-3-1---------------1-1-----1-------3-1-0---3-3-1-3-1-----------

----0---0-0-2-0-2-----------0-----------0—----------0---0-0-2-0-

----2-----------3-----------2-----------0-----------2-----------

 

Bb/ / Bb/ / F / / C / / F / / F / / F / / F / / Bb/ / Bb/ / F /  

----------5-3---0---0---------------0---------------------5-3---

----1-1-----1-----3---3-1-------1-3-1---------------1-1-----1---

2-----------0-----0-----0—----------0---0-0-2-0-2-----------0---

3-----------2-----0-----2-----------2-----------3-----------2---

 

/ F / / C / / C / / F / / F / / Bb/ / Bb/ / F / / C / / F / / F

0-0-----0-----------0---------------------5-3---0---0-----------

----3-1-0---3-3-1-3-1---------------1-1-----1-----3---3-1-------

--------0—----------0---0-0-2-0-2-----------0-----0-----0—------

--------0-----------2-----------3-----------2-----0-----2-------

 

    F / / F / / Bb/ / Bb/ / F / / F / / C / / C / / F / / F / /  

----------------5---8-8-7-5-------------0-----------------------

----5---8-8-5-8-6-----------8---5-5-----0---3-3-----5---8-8-5-8-

----5-----------5-----------5-------7-5-0—----------5-----------

----5-----------------------5-----------0-----------5-----------

 

Bb/ / Bb/ / F / / C / / F / / F / / F / / F / / Bb/ / Bb/ / F /

5---8-8-7-5-------------------------------------5---8-8-7-5-----

6-----------8---5---5---------------5---8-8-5-8-6-----------8---

5-----------5-----7---7-5—----------5-----------5-----------5---

------------5-----5-----5-----------5-----------------------5---

 

/ F / / C / / C / / F / / F / / Bb/ / Bb/ / F / / C / / F / / F

--------0-----------------------5---8-8-7-5---------------------

5-5-----0---3-3-----5---8-8-5-8-6-----------8---5---5-----------

----7-5-0—----------5-----------5-----------5-----7---7-5—------

--------0-----------5-----------------------5-----5-----5-------

 

/ / F / / F / / Bb/ / Bb/ / F / / F / / C / / C / / F / / F / /

----0---------------------5-3---0-0-----0-----------0-----------

1-3-1---------------1-1-----1-------3-1-0---3-3-1-3-1-----------

----0---0-0-2-0-2-----------0-----------0—----------0---0-0-2-0-

----2-----------3-----------2-----------0-----------2-----------

 

Bb/ / Bb/ / F / / C / / F / / F /  

----------5-3---0---0-------------

----1-1-----1-----3---3-1-----1---

2-----------0-----0-----0—----0---

3-----------2-----0-----2-----2---

Mike Gradwell

Ukulele and Classical Guitar Tuition

Contact

​Tel:  01524 941548

​Mail: mike.gradwell@gmail.com

 

Follow Mike
  • w-facebook
  • w-youtube