39 Queen

F       C       Dm      Bb      F       C       Bb      F

----0-1-3-----------------------0---0---------------------------

1---------------------0-1------------31-0-------------0-1-------

----------------2---2---------------------------2---2-----------

----------------------------------------------------------------

 

F       C       Dm      Bb      Bbmaj7  C       F

----0-1-3-----------------------0---0---------------------

1---------------------0-1-------------------1-0-1---------

----------------2---2-------------------0-----------------

----------------------------------------------------------

Mike Gradwell

Ukulele and Classical Guitar Tuition

Contact

​Tel:  01524 941548

​Mail: mike.gradwell@gmail.com

 

Follow Mike
  • w-facebook
  • w-youtube