A Spaceman Came Travelling Chris de Burgh

Intro

Dm  /   C   /   Bb  /   Dm  /   F   /   C   /   Bb  /   /   / C

----------------------------------------------------------------

1---3-1-0---------------------0-1---3-1-0---------------------0-

2-------0---2-0-2---2-0-2-------0-------0---2-0-2-------------0-

2-------0-------3-------2-------2-------0-------3-------------0-

 

Dm  /   Am  /   Bb  /   Dm  /   F   /   C   /   Dm  /   /   /   

----------------------------0-1-3---5-3-3---0-------------------

1---3-1-0-----------------------1-------3-----3-1-------------0-

2-------0---2-0-2---2-0-2-------0-------0-------2-----------2---

2-------2-------3-------2-------2-------0-------2---------------

 

Dm  /   /   /   Dm  /   /   /   Dm  /   /   /     

----------------0-----------------------------

------------3---1-----------------------------

2---------------2-----------------------------

2---------------2-----------------------------

 

   Dm                     F                         C                Dm          

A spaceman came travelling on his ship from afar

          F                    C                     Bb

'Twas light years of time since his mission did start

C        Dm     Am           Bb             Dm

   And over a village he halted his craft

           F                 C              Bb                 C Dm

And it hung in the sky like a star, just like a star

Mike Gradwell

Ukulele and Classical Guitar Tuition

Contact

​Tel:  01524 941548

​Mail: mike.gradwell@gmail.com

 

Follow Mike
  • w-facebook
  • w-youtube