A Swingin' Safari Bert Kaempfert

Section One (x3)

  D   /   /   /   G   /   /   /   D   /   /   /   A   /   /   /

----------------------------------------------------------------

------2-------2-------3-------3-------2-------2------0----------

--2-------2-------2-------2-------2-------2-------1---1---------

-2-------2-------0-------0-------2-------2-------2------2-------

 

  D   /   /   /   G   /   /   /   D   /   A7  /   D   /   /   /

----------------------------------------------------------------

------2-------2-------3-------3-------2---3--0------------------

--2-------2-------2-------2-------2-----------1---2-------------

-2-------2-------0-------0-------2------------------------------

Mike Gradwell

Ukulele and Classical Guitar Tuition

Contact

​Tel:  01524 941548

​Mail: mike.gradwell@gmail.com

 

Follow Mike
  • w-facebook
  • w-youtube