A Toy

C   /   /   C   /   /   F   /   /   G   /   /   C   /   /   G   /   /   

------------------------0-------0---------------------------------0-2---

0-----------0-----1-3---1-----3-----------------0-----1-3---3-----------

0-------0---------------0-----------2-------2---0-----------2-----------

0-----------------------2-----------0-----------0-----------0-----------

 

C   /   /   C   /   /   C   /   /   C   /   /   F   /   /   G   /   /   

3-----------------------------------------------0-------0---------------

0-------3---0-----------0-----------0-----1-3---1-----3-----------------

0---------------0-------0-------0---------------0-----------2-------2---

0-----------------------0-----------------------2-----------0-----------

 

C   /   /   G   /   /   C   /   /   C   /   /   F   /   /   F   /   /   

------------------0-2---3-------------------1---0-------------------1---

0-----1-3---3-----------0-------3---0-----------1-------3---1-----------

0-----------2-----------0---------------0-------0---------------2-------

0-----------0-----------0-----------------------2-----------------------

 

F   /   /   F   /   /   F   /   /   F   /   G   C   /   /   C   /   /   

0-------------------1---0-----------0-------2---3-------------------1---

1-------3---1-----------1-------3-----------3---0-------3---0-----------

0---------------2-------0-------------------2---0---------------0-------

2-----------------------2-------------------0---0-----------------------

 

F   /   /   F   /   /   F   /   /   F   /   /   F   /   /   F   /   G   

0-------------------1---0-------------------1---0-----------0-------2---

1-------3---1-----------1-------3---1-----------1-------3-----------3---

0---------------2-------0---------------2-------0-------------------2---

2-----------------------2-----------------------2-------------------0---

 

C   /   /   C   /   /   C   /   /   C   /   /   F   /   /   G   /   /   

3-----------------------------------------------0-------0---------------

0-------3---0-----------0-----------0-----1-3---1-----3-----------------

0---------------0-------0-------0---------------0-----------2-------2---

0-----------------------0-----------------------2-----------0-----------

 

C   /   /   G   /   /   C   /   /   C   /   /   C   /   /   C   /   /  ------------------0-2---3-----------------------------------------------

0-----1-3---3-----------0-------3---0-----------0-----------0-----1-3---

0-----------2-----------0---------------0-------0-------0---------------

0-----------0-----------0-----------------------0-----------------------

 

F   /   /   G   /   /   C   /   /   G   /   /   C   /   /   C   /   /   

0-------0---------------------------------0-2---3-----------------------

1-----3-----------------0-----1-3---3-----------0-------3---0-----------

0-----------2-------2---0-----------2-----------0---------------0-------

2-----------0-----------0-----------0-----------0-----------------------

Mike Gradwell

Ukulele and Classical Guitar Tuition

Contact

​Tel:  01524 941548

​Mail: mike.gradwell@gmail.com

 

Follow Mike
  • w-facebook
  • w-youtube