A Whiter Shade of Pale (Intro)

C   /   Em  /   Am  /   C   /   F   /   Am  /   Dm  /   F   /    

--------------------------------0-----------2-3-----------------

0---------------0-----------0---1---------------101-------------

0---------------0-2-0---0-2---0-0---------------2-----------2---

0---------------2-----4---------2---------------2---------------

 

G   /   G7  /   Em  /   G7  /   C   /   F   /   G   /   F   G7

2-----------3-5-------------------------0-----------------------

3---------------3-3-------1-0-1-1-0-----1-------3-------1-0-1---

2---------------45--------------0---2-0-0-------2-------0---2-2-

0---------------0---------------0-------2-------0-------2---0---

Mike Gradwell

Ukulele and Classical Guitar Tuition

Contact

​Tel:  01524 941548

​Mail: mike.gradwell@gmail.com

 

Follow Mike
  • w-facebook
  • w-youtube