Accidentally In Love Counting Crows

Intro

G   /   /   /   C   /   /   /   G   /   /   /   D   /   /   /    

----2-0-0-----0-----2-0-0-----0-----2-0-0-----0-0---2---0-------

3---------3-3---3---------3-3---3---------3-3-------------3-3---

2---------------0---------------2-------------------------------

0---------------0---------------0-------------------------------

 

G   /   /   /   C   /   /   /   Em  /   /   /   A   /   /   /   C   /   /   /  

----2-0-0-----0-----2-0-0-----0-----2-0-0-----0-0-------------------------------

3---------3-3---3---------3-3---3---------3-3---0-3-3-0-0-------3---------------

2---------------0---------------4---------------1---------1-1---0---------------

0---------------0---------------0---------------2---------------0---------------

G                                      C                    G                                         C

    So, she said what's the problem baby,   what's the problem I don't know well maybe

          Em                                   A                                        C                  

I'm in love (love), think about it every time I think about it, can't stop thinking 'bout it

 

G                                       C                        G                                    C     

    How much longer will it take to cure this?    Just to cure it 'cause I can't ignore it

         Em                                       A                                         

If it's love (love) makes me wanna turn around and face me

        C  

But I don't know nothing 'bout love  -  ah ah

Mike Gradwell

Ukulele and Classical Guitar Tuition

Contact

​Tel:  01524 941548

​Mail: mike.gradwell@gmail.com

 

Follow Mike
  • w-facebook
  • w-youtube