Addams Family Theme

Intro                 

C7       F         x         x          D7       G         x         x          D7        G        D7        G        C7        F         x         x          (x2)

------------------------------------------------------------------------------------------------

----0-1-------------------0-2-3-------------------0-2-3-------0-2-3---------0-1-----------------

0-2---------------------2-----------------------2-----------2-----------0-2---------------------

------------------------------------------------------------------------------------------------

 

             F                            Bb             C7                F

They're creepy and they're kooky, mysterious and spooky

                              Bb            C7                F

They're altogether ooky, the Addams family

 

                               Bb                 C7                    F

Their house is a museum, when people come to see 'em

                           Bb                  C7                F                 

They really are a scre-am, the Addams family

 

C7 F x x               D7 G x x            D7 G D7 G C7 F x x

            Neat                     Sweet                                  Petite

 

     F                   Bb               C7                            F

So get a witch's shawl on, a broomstick you can crawl on

                              Bb               C7                       F

We're gonna pay a call on, the Add…ams fam…ily x x

    F                      Bb                   C7                   F                                           Bb                   C7                   F              (x2) 

------0-----------------------------------------------0---------------------------------------

--1-----1-------3-------1-0---3-0-------1---------1-----1-------3-------1-0---------0-1------

0-----------2-----------------------0-----------0-----------2-----------------0-2-------------

--------------3-----------------------2-----------------------3-------------------------------

 

C7       F         x         x         D7       G         x         x         D7       G         D7        G        C7         F         x         x         (x2)

------------------------------------------------------------------------------------------------

----0-1------------------0-2-3-------------------0-2-3-------0-2-3---------0-1-----------------

0-2--------------------2-----------------------2-----------2-----------0-2---------------------

------------------------------------------------------------------------------------------------

 

           Fm        C7       Fm      C7        Fm      C7         Fm           x             x                         

----------------------------------------------------------------

----0-1---4-----0-1---4-----0-1---4-----0--1-------------------

0-2---------0-2---------0-2---------0-2------------------------

----------------------------------------------------------------

 

(x x click fingers or tap ukulele)

Mike Gradwell

Ukulele and Classical Guitar Tuition

Contact

​Tel:  01524 941548

​Mail: mike.gradwell@gmail.com

 

Follow Mike
  • w-facebook
  • w-youtube