All Of Me (inst)

C   /   /   /   C   /   /   /   E7  /   /   /   E7  /   /   /  

3-----------------------3-5-3---2-------------------------------

0---3-0-----------------0-------0---4-0-------------------------

0-----------------------0-------2-------------------------------

0-----------------------0-------1-------------------------------

 

A7  /   /   /   A7  /   /   /   Dm  /   /   /   Dm  /   /   /  

0-------------------------1-0-----------------------------------

0---3-0-----------------0-------3-------1-----------------------

1-----------------------1-------2-------------------------------

0-----------------------0-------2-------------------------------

 

E7  /   /   /   E7  /   /   /   Am  /   /   /   Am  /   /   /  

----------------------------2---5-------3-----------------------

0---0---0-----------0---4-------0-------0----------------------

2---2---2-----------------------0---0---0-----------------------

1---1---1-----------------------2-------2-----------------------

 

D   /   /   /   D   /   /   /   Dm  /   /   /   G   /   G+5 /  

2-----------------------5---2---0-----------------------2-------

2---5---------------5---2-------1---------------3-------3-------

2-------2---------------2-------2---------------2-------3-------

2-------2---------------2-------2---------------0-------0-------

 

C   /   /   /   C   /   /   /   E7  /   /   /   E7  /   /   /  

3-----------------------3-5-3---2-------------------------------

0---3-0-----------------0-------0---4-0-------------------------

0-----------------------0-------2-------------------------------

0-----------------------0-------1-------------------------------

 

A7  /   /   /   A7  /   /   /   Dm  /   /   /   Dm  /   /   /  

0-------------------------1-0-----------------------------------

0---3-0-------------0---0-------3-------1-----------------------

1-----------------------1-------2-------2-----------------------

0-----------------------0-------2-------2-----------------------

 

F   /   /   /   F   /   /   /   C   /   /   /   A7  /   /   /  

5---------------5---------------2---------------2-----------0---

5-------8---7---5-----------8---0-------0---3---0---------------

5---------------5---------------0---------------1---------------

5---------------5---------------0---------------0---------------

 

Dm  /   /   /   G6  /   /   /   C   /   /   /   Cmaj7   /   /  

5---------------7-------7-------3---------------2---------------

5-------5---8---7---------------0---------------0---------------

5---------------7---------------0---------------0---------------

--------------------------------0---------------0---------------

Mike Gradwell

Ukulele and Classical Guitar Tuition

Contact

​Tel:  01524 941548

​Mail: mike.gradwell@gmail.com

 

Follow Mike
  • w-facebook
  • w-youtube