Allegretto Ferdinando Carulli

/ / I / / / / / I / / / / / I / / / / / I / / / / / I / / / / /

------------------------4-0-------------0-4-0-------------------

----0---0-2---2-0---0-------2---2-4---4-------0-----0---0-2---2-

1-2-1-----2-----1---1-------2---2-4---4---------1-2-1-----2-----

----2-----2-----2-----2-----2-----4-----2-----------2-----2-----

 

I / / / / / I / / / / / I / / / / / I / / / / / I / / / / / I /

--------4-0-------------0-----------2-----2-----4-----4-----5---

0---0-------2---2-4---4-0-------0-0---0-0---0-0---0-0---0-0---0-

1---1-------2---2-4---4-1---------------------------------------

2-----2-----2-----4-----2-----------1-----1-----2-----2-----4---

 

/ / / / I / / / / / I / / / / / I / / / / / I / / / / / I / / /

--5-----4-----4-----2-----2-----4-----4-----5-----4-----2-------

0---0-0---0-0---0-0---0-0---0-0---0-0---0-0---0-0---0-0---------

----------------------------------------------------------------

--4-----2-----2-----1-----1-----2-----2-----4-----2-----1-------

 

/ / I / / / / / I / / / / / I / / / / / I / / / / / I / / / / /

------------------------4-0-------------0-4-0-------------------

----0---0-2---2-0---0-------2---2-4---4-------0-----0---0-2---2-

1-2-1-----2-----1---1-------2---2-4---4---------1-2-1-----2-----

----2-----2-----2-----2-----2-----4-----2-----------2-----2-----

 

I / / / / / I / / / / / I / / / / / I / / / / / I / / / / / I /

--------4-0-------------0-----------0---0-2---2-0---0-5-0-------

0---0-------2---2-4---4-0-------2-3-2---2-3---3-2---2-----2-3---

1---1-------2---2-4---4-1-------------2-----2-----2---------4---

2-----2-----2-----4-----2-------------------------------------2-

 

/ / / / I / / / / / I / / / / / I / / / / / I / / / / / I / / /

--------------------0---0-2---2-0---0-5-0-----------------------

3-2---2-0---0---2-3-2---2-3---3-2---2-----2-3---3-0---0---------

4-2---2-1---1---------2-----2-----2---------4---4-1---1-2-------

----2-----2-----------------------------------2-----2---2-------

 

/ / I / / / / / I / / / / / I / / / / / I / / / / / I / / / / /

--------------------0-------------------------------------------

0-2-----3-----0---2-------2-----3-----2-----0---0-2-----3-----0-

------4-----1-----------2-----4-----2-----1-----------4-----1---

----2-----2-----2-----2-----2-----2-----2-----2-----2-----2-----

 

I / / / / / I / / / / / I / / / / / I / / / / / I / / / / / I /

----0-------------------------------0---0-2---2-0---0-5-0-------

--2-------2-----3-----2-0-------2-3-2---2-3---3-2---2-----2-3---

--------2-----4-----2---1-------------2-----2-----2---------4---

2-----2-----2-----2-----2-------------------------------------2-

 

/ / / / I / / / / / I / / / / / I / / / / / I / / / / / I / / /

--------------------0---0-2---2-0---0-5-0-----------------------

3-2---2-0---0---2-3-2---2-3---3-2---2-----2-3---3-0---0---------

4-2---2-1---1---------2-----2-----2---------4---4-1---1-2-------

----2-----2-----------------------------------2-----2---2-------

 

/ / I / / / / / I / / / / / I / / / / / I / / / / / I / / / / /

------------------------4-0-------------0-4-0-------------------

----0---0-2---2-0---0-------2---2-4---4-------0-----0---0-2---2-

1-2-1-----2-----1---1-------2---2-4---4---------1-2-1-----2-----

----2-----2-----2-----2-----2-----4-----2-----------2-----2-----

 

I / / / / / I / / / / / I / / /

--------4-0-------------0-------

0---0-------2---2-4---4-0-------

1---1-------2---2-4---4-1-------

2-----2-----2-----4-----2-------

Mike Gradwell

Ukulele and Classical Guitar Tuition

Contact

​Tel:  01524 941548

​Mail: mike.gradwell@gmail.com

 

Follow Mike
  • w-facebook
  • w-youtube