Always On My Mind The Pet Shop Boys

Intro  

F / / / C / / / Dm/ / / Bb/ / C F / / / C / / / Dm/ / / Bb/ / C

0-------------0-----------------0-------------0-----------------

1-1-1-1-3333----1-------1111--3-1-1-1-1-3333----1-------1111--3-

0-0-0-0-0--0----2-2-2-2-2--2--0-0-0-0-0-0--0----2-2-2-2-2--2--0-

2-2-2-2-0--0----2-2-2-2-3--3--0-2-2-2-2-0--0----2-2-2-2-3--3--0-

 

F / / / C / / / Dm/ / / Bb/ / C Bb/ / C Bb/ / C 

0-------------0---------------------------------

1-1-1-1-3333----1-------1111--3-1111--3-1111--3-

0-0-0-0-0--0----2-2-2-2-2--2--0-2--2--0-2--2--0-

2-2-2-2-0--0----2-2-2-2-3--3--0-3--3--0-3--3--0-

F                         C            Dm                                Bb         C

   Maybe I didn't treat you        quite as good as I should

F                          C           Dm                                G

    Maybe I didn't love you        quite as often as I could

Bb                                            F                     Bb                           Gm   F

     Little things I should have said and done,     I never took the time

C                                        F       Bb                 C                    Bb       C 

    You were always on my mind,     you were always on my mind

Mike Gradwell

Ukulele and Classical Guitar Tuition

Contact

​Tel:  01524 941548

​Mail: mike.gradwell@gmail.com

 

Follow Mike
  • w-facebook
  • w-youtube