Amazing Grace

      F     /     /     /     /     /     Bb    /     /     F     /    

------------------0-----0-----------------------------------------------

---1--1-------------3-1-1-----------3-----1-----------------------------

0-----0-----------------0-----------------2-----------2-----0-----------

------2-----------------2-----------------3-----------------2-----------

 

      F     /     /     /     /     /     C     /     /     /     /    

------------------0-----0--------------0--3-----------------------------

---1--1-------------3-1-1-----------3-----0-----------------------------

0-----0-----------------0-----------------0-----------------------------

------2-----------------2-----------------0-----------------------------

 

      F     /     /     /     /     /     Bb    /     /     F     /    

0--3--3-----------0-----0-----------------------------------------------

------1-------------3-1-1-----------3-----1-----------------------------

------0-----------------0-----------------2-----------2-----0-----------

------2-----------------2-----------------3-----------------2-----------

 

      F     /     /     C     /     /     F     /     /     /     /    

------------------0-----0-----------------------------------------------

------1-------------3-1-0-----------3-----1-----------------------------

0-----0-----------------0-----------------0-----------------------------

------2-----------------0-----------------2-----------------------------

Mike Gradwell

Ukulele and Classical Guitar Tuition

Contact

​Tel:  01524 941548

​Mail: mike.gradwell@gmail.com

 

Follow Mike
  • w-facebook
  • w-youtube