Angels We Have Heard On High

G   /   /   /   D   /   G   /   G   D   G   /   D   /   G   /  

2---2---2---5---5-----3-2-------2---0---2---5---2---------------

3-------3-------2-------3-------3---2---3-------2-----5-3-------

2-------2-------2-------2-------2---2---2-------2-------2-------

0-------0-------2-------0-------0---2---0-------2-------0-------

 

G   /   /   /   D   /   G   /   G   D   G   /   D   /   G   /  

2---2---2---5---5-----3-2-------2---0---2---5---2---------------

3-------3-------2-------3-------3---2---3-------2-----5-3-------

2-------2-------2-------2-------2---2---2-------2-------2-------

0-------0-------2-------0-------0---2---0-------2-------0-------

 

G   /   C   /   D   /   /   /   G   /   C   /   D   /   /   /  

5-------7-5-3-2-3-------5-3-2---2-------3-2-0---0---------------

3-------0-------2-------2-----5-3-------0-----3-2---------------

2-------0-------2-------2-------2-------0-------2-----2-2-------

0-------0-------2-------2-------0-------0-------2-------2-------

G   /   /   /   D   /   /   /   G   /   C   /   D   /   /   /  

----0---2---3---2---------------5-------7-5-3-2-3-------5-3-2---

3-------3-------2-------5-------3-------0-------2-------2-----5-

2-------2-------2-------2-------2-------0-------2-------2-------

0-------0-------2-------2-------0-------0-------2-------2-------

G   /   C   /   D   /   /   /   G   /   /   /   G   /   D   /  

2-------3-2-0---0-------------------0---2---3---2-------0-------

3-------0-----3-2---------------3-------3-------3-------2-------

2-------0-------2-----2-2-------2-------2-------2-------2-------

0-------0-------2-------2-------0-------0-------0-------2-------

 

G   /   /   /  

----------------

3---------------

2---------------

0---------------

Mike Gradwell

Ukulele and Classical Guitar Tuition

Contact

​Tel:  01524 941548

​Mail: mike.gradwell@gmail.com

 

Follow Mike
  • w-facebook
  • w-youtube