Ashes To Ashes

Intro
Am  /   /   /   G   /   /   /   Dm  /   /   /   Am  /   /   /   G   /   /   /   Dm  /   /   /
--0-2-----------2---------------0-----------------0-2---------------------------0---------------
0-----------------------0-----------------------0-----------------------------------------------
----------------------------------------2-----------------------------------------------2-------
------------------------------------------------------------------------------------------------
Am  /   /   /   G   /   /   /   Dm  /   /   /   Am  /   /   /   G   /   /   /   Dm  /   /   /
--0-2-----------2---------------0-----------------0-2---------------------------0---------------
0-----------------------0-----------------------0-----------------------------------------------
----------------------------------------2-----------------------------------------------2-------
------------------------------------------------------------------------------------------------
Am  /   /   /   G   /   /   /   Dm  /   /   /   Am  /   /   /   G   /   /   /
--0-2-----------2---------------0-----------------0-2---------------------------
0-----------------------0-----------------------0-------------------------------
----------------------------------------2---------------------------------------
--------------------------------------------------------------------------------
Outro
Am  /   /   /   G   /   /   /   Dm  /   /   /   Am  /   /   /   G   /   /   /   Dm  /   /   /
--0-2-----------2---------------0-----------------0-2---------------------------0---------------
0-----------------------0-----------------------0-----------------------------------------------
----------------------------------------2-----------------------------------------------2-------
------------------------------------------------------------------------------------------------
Am  /   /   /
0---------------
0---------------
0---------------
2---------------

Mike Gradwell

Ukulele and Classical Guitar Tuition

Contact

​Tel:  01524 941548

​Mail: mike.gradwell@gmail.com

 

Follow Mike
  • w-facebook
  • w-youtube