Atomic Blondie

Intro

Dm/ / / Dm/ / / Bb/ / / Bb/ / / G / / / G / / / C / / / A*/ / /

----------------0-------0-------3-2-0---3-2-0---8-7-5-3-0-------

1-0-----1-0-------3-1-----3-1---------------------------0---10--

----2-------2-------------------------------------------1-------

--------------------------------------------------------2--2----

 

Dm/ / / Dm/ / / Bb/ / / Bb/ / / G / / / G / / / C / / / A / / /

--------------------------------------------------------0-------

------------10--------------10--------------10--3-------0----10-

2---------------2---------------2---------------0-------1-------

2----------2----3----------3----0----------0----0-------2---2---

 

Dm/ / / Dm/ / / Bb/ / / Bb/ / / G / / / G / / / C / / / A / / / **

--------------------------------------------------------0-------

------------10--------------10--------------10--3-------0-------

2---------------2---------------2---------------0-------1-------

2----------2----3----------3----0----------0----0-------2-------

 

D                           Em          C                    A      

    Aha make me tonight. Tonight make it right.    

D                           Em          C            A

    Aha make me tonight. Tonight. Tonight

D                                     Em             C        A

    Ooh, aha make it magnificent. Tonight. Right

 F                              C              Dm        G      C             Repeat from * to **  (x2)

(Oh), oh your hair is beautiful, aaah,  tonight.  Atomic

Mike Gradwell

Ukulele and Classical Guitar Tuition

Contact

​Tel:  01524 941548

​Mail: mike.gradwell@gmail.com

 

Follow Mike
  • w-facebook
  • w-youtube