Auld Lang Syne (inst)

    F   /   /   /   C   /   /   /   F   /   /   /   Bb  /   /  

----------------0---------------0-----------0---3---5-----------

----1-----0-1-------3-----1-3-----3-1-----1-1-------1-----------

0---0-------0-------0-------0-------0-------0-------2-----------

----2-------2-------0-------0-------2-------2-------------------

 

    F   /   /   /   C   /   /   /   Dm  /   C   /   F  /   /  

5---3-----0-0-------------------0-------------------------------

----1-------1---1---3-----1-3-----3-1---------------1-----------

----0-------0-------0-------0-------2-----2-2---0---0-----------

----2-------2-------0-------0-------2-------0-------2-----------

 

    F   /   /   /   C   /   /   /   F   /   /   /   Bb  /   /  

5---3-----0-0-------------------5---3-----0-0---3---5-----------

----1-------1---1---3-----1-3-------1-------1-------1-----------

----0-------0-------0-------0-------0-------0-------2-----------

----2-------2-------0-------0-------2-------2-------------------

 

    F   /   /   /   C   /   /   /   Dm  /   C   /   F  /   /  

5---3-----0-0-------------------0-------------------------------

----1-------1---1---3-----1-3-----3-1---------------1-----------

----0-------0-------0-------0-------2-----2-2---0---0-----------

----2-------2-------0-------0-------2-------0-------2-----------

Mike Gradwell

Ukulele and Classical Guitar Tuition

Contact

​Tel:  01524 941548

​Mail: mike.gradwell@gmail.com

 

Follow Mike
  • w-facebook
  • w-youtube