Minuet in C J s Bach

Section One (x2)

C           /           F           C           Dm        

------------------------0-------0-2-3-----------------------

3-------0-1-3-----------1---1-3-----0-----------1---3-1-0---

0---0-2-----0---0---0---0-----------0---0---0---2---------2-

0-----------0-----------2-----------0-----------2-----------

 

C           G           G           C           /        

------------------------------------------------------------

0---1-0-------------0-------3-1-0---3-------0-1-3-----------

0-------2-0-----0-2---0-2---------2-0---0-2-----0---0---0---

0-----------4-----------0-----------0-----------0-----------

 

F           C           Dm          C           G        

0-------0-2-3-----------------------------------------------

1---1-3-----0-----------1---3-1-0---0---1-0---------0-------

0-----------0---0---0---2---------2-0-------2-0-2-----2-0---

2-----------0-----------2-----------0-----------0---------4-

 

            Section Two (x2)

C           /           G           Am          D        

------------7---3-5-7-3-5-----0-2---3---0-2-3---------------

------------0-----------3---3-----3-0---------3-2---0-2-0---

0-------0---0-----------2-----------0-----------2---------2-

0---0-------0-----------0-----------2-----------2-----------

 

/           Am  G   D   G       D   G           C        

--------0-2-3---2---0---2-------0---------------------------

--0-2-3-----0---3---2---3-------2---3---3---1---3-----------

2-----------0---2---2---2---2---2---2-----------0---0---0---

2-----------2---0---2---0-------2---0-----------0-----4-----

 

F           C           G           /           Dm        

0-----------------------------------------------------------

1-----------3---1---0-------------------------0-1---0-------

0---0---0---0-----------2-0---0-2---------0-2---2-------2---

2-----4-----0-----------0---4-------0-2-4-------2-----------

                                     

(first time)                 (second time)

C           /                C           /                 

------------------------     ------------------------

0-3---------------------     0-3---------------------

0---0-------0-------0---     0---0-------0-----------

0-------4---0---0-------     0-------4---0-----------

Mike Gradwell

Ukulele and Classical Guitar Tuition

Contact

​Tel:  01524 941548

​Mail: mike.gradwell@gmail.com

 

Follow Mike
  • w-facebook
  • w-youtube