Batman Theme

G   /   /   /   G   /   /   /   G   /   /   /   G   /   /   /  

----------------------------------------------------------------

3-3-3-3-3-3-3-3-3-3-3-3-3-3-3-3-3-3-3-3-3-3-3-3-3-3-3-3-3-3-3-3-

2-2-1-1-0-0-1-1-2-2-1-1-0-0-1-1-2-2-1-1-0-0-1-1-2-2-1-1-0-0-1-1-

0-0-0-0-0-0-0-0-0-0-0-0-0-0-0-0-0-0-0-0-0-0-0-0-0-0-0-0-0-0-0-0-

G   /   /   /   G   /   /   /   G   /   /   /   G   /   /   /  

----------------------------------------------------------------

3-3-3-3-3-3-3-3-3-3-3-3-3-3-3-3-3-3-3-3-3-3-3-3-3-3-3-3-3-3-3-3-

2-2-1-1-0-0-1-1-2-2-1-1-0-0-1-1-2-2-1-1-0-0-1-1-2-2-1-1-0-0-1-1-

0-0-0-0-0-0-0-0-0-0-0-0-0-0-0-0-0-0-0-0-0-0-0-0-0-0-0-0-0-0-0-0-

                                                Batman

 

G   /   /   /   G   /   /   /   G   /   /   /   C   /   /   /  

----------------------------------------------------------------

3-3-3-3-3-3-3-3-3-3-3-3-3-3-3-3-3-3-3-3-3-3-3-3-3-3-2-2-1-1-2-2-

2-2-1-1-0-0-1-1-2-2-1-1-0-0-1-1-2-2-1-1-0-0-1-1-0-0-0-0-0-0-0-0-

0-0-0-0-0-0-0-0-0-0-0-0-0-0-0-0-0-0-0-0-0-0-0-0-0-0-0-0-0-0-0-0-

                Batman                          Batman

 

C   /   /   /   G   /   /   /   G   /   /   /   D   /   /   /  

------------------------------------------------0-0-------------

3-3-2-2-1-1-2-2-3-3-3-3-3-3-3-3-3-3-3-3-3-3-3-3-2-2-4-4-3-3-4-4-

0-0-0-0-0-0-0-0-2-2-1-1-0-0-1-1-2-2-1-1-0-0-1-1-2-2-2-2-2-2-2-2-

0-0-0-0-0-0-0-0-0-0-0-0-0-0-0-0-0-0-0-0-0-0-0-0-0-0-0-0-0-0-0-0-

                Batman                          Batman

 

C   /   /   /   G   /   /   /   G   /   /   /   D   /   /   /  

------------------------------------------------0-0-------------

3-3-2-2-1-1-2-2-3-3-3-3-3-3-3-3-3-3-3-3-3-3-3-3-2-2-4-4-3-3-4-4-

0-0-0-0-0-0-0-0-2-2-1-1-0-0-1-1-2-2-1-1-0-0-1-1-2-2-2-2-2-2-2-2-

0-0-0-0-0-0-0-0-0-0-0-0-0-0-0-0-0-0-0-0-0-0-0-0-0-0-0-0-0-0-0-0-

Batman          Batman                          Batman

 

C   /   /   /   G   /   /   /   G   /   /   /   G   /   /   /  

----------------------------------------------------------------

3-3-2-2-1-1-2-2-3-3-3-3-3-3-3-3-3-3-3-3-3-3-3-3-3-3-3-3-3-3-3-3-

0-0-0-0-0-0-0-0-2-2-1-1-0-0-1-1-2-2-1-1-0-0-1-1-2-2-1-1-0-0-1-1-

0-0-0-0-0-0-0-0-0-0-0-0-0-0-0-0-0-0-0-0-0-0-0-0-0-0-0-0-0-0-0-0-

Batman          Batman                  nana nana  nana nana  nana nana

G   /   /   /   

----------------

3-------3---3---

2-------2---2---

0-------0---0---

na       Batman                          

 

Mike Gradwell

Ukulele and Classical Guitar Tuition

Contact

​Tel:  01524 941548

​Mail: mike.gradwell@gmail.com

 

Follow Mike
  • w-facebook
  • w-youtube