Oh I Do Like To Be Beside The Seaside (inst)

/   C   /   /   /   G   /   /   /   C   /   /   /   F   /   A7 

----0-------------------------------0---------------0-------0---

3--40---3--0--------3---3-------3--40---3--0--------1-------0---

----0-------2--0----2---------------0-------2--0---00-------1---

----0-----------4---0---------------0-----------4---2-------0---

 

/   G7  /   /   /   C   /   A   /   D   /   /   /   G   /   / 

0--12---0-----------0-------------------------------------------

----1------10-------0---3---1---0--00-------0-------0-----------

----2----------21--20-------1-------2---2---2---2--22---2-------

----0---------------0-------2-------2-------2-------0-------4---

 

/   C   /   /   /   G   /   /   /   C   /   /   /   F   /   A7 

----0-------------------------------0---------------0-------0---

3--40---3--0--------3---3-------3--40---3--0--------1-------0---

----0-------2--0----2---------------0-------2--0---00-------1---

----0-----------4---0---------------0-----------4---2-------0---

 

/   B7  /   /   /   Em  /   A   /   D   /   G   /   C   /   C 

0--02---2---2-------0---0---0-----------0---2---------------3---

----2--5---5----5--23--3---30--31--0--------3--0---0--------0---

----3---------------4-------1-------2-------2---2---0-------0---

----2---------------0-------2-------2-------0-------0-------0---

Mike Gradwell

Ukulele and Classical Guitar Tuition

Contact

​Tel:  01524 941548

​Mail: mike.gradwell@gmail.com

 

Follow Mike
  • w-facebook
  • w-youtube