Blackadder

  G       /       A       /       C       /       G       D

----------------2-4-------------0-3-----3-3-2-0-----------------

--3-------3---3---0---------------0-------0-----3-3-------2-----

2-2-----2-2-2-----1---------------0-------0-------2-------2-----

--0-------0-------2---------------0-------0-------0-------2-----

 

  G       /       A       /       C       /       G       D

----------------2-4-------------0-3-----3-3-2-0-----------------

--3-------3---3---0---------------0-------0-----3-3-------2-----

2-2-----2-2-2-----1---------------0-------0-------2-------2-----

--0-------0-------2---------------0-------0-------0-------2-----

 

  G       Dm      Am      D       G       C       Am      D

5-5---2-5-5-----5-3-2-0---5-----5-5---2-5-5-------0-2-3-7-5-----

--3-------5---5---0-----3-2-------3-------0---3-3-0-------2-----

--2-------5-------0-------2-------2-------0-------0-------2-----

--0---------------2-------2-------0-------0-------2-------2-----

 

  G       /       A       /       C       /       G       D

----------------2-4-------------0-3-----3-3-2-0-----------------

--3-------3---3---0---------------0-------0-----3-3-------2-----

2-2-----2-2-2-----1---------------0-------0-------2-------2-----

--0-------0-------2---------------0-------0-------0-------2-----

 

  G       /       A       /       C       /       G       D

----------------2-4-------------0-3-----3-3-2-0-----------------

--3-------3---3---0---------------0-------0-----3-3-------2-----

2-2-----2-2-2-----1---------------0-------0-------2-------2-----

--0-------0-------2---------------0-------0-------0-------2-----

 

  G       Dm      Am      D       G       C       Am      G

5-5---2-5-5-----5-3-2-0---5-----5-5---2-5-5-------0-2-3-5-5-----

--3-------5---5---0-----3-2-------3-------0---3-3-0-------3-----

--2-------5-------0-------2-------2-------0-------0-------2-----

--0---------------2-------2-------0-------0-------2-------0-----

Mike Gradwell

Ukulele and Classical Guitar Tuition

Contact

​Tel:  01524 941548

​Mail: mike.gradwell@gmail.com

 

Follow Mike
  • w-facebook
  • w-youtube