Blackbird

C   /   /   C   /   /   C   /   /   C   /   /   C   /   /  

------------7---7---7---7---7---7---------------7---7---7---

0---1---3---0---0---0---0---0---0---0---1---3---0---0---0---

0---2---4---0---0---0---0---0---0---0---2---4---0---0---0---

--0---0---0----0---0-------0---0------0---0---0----0---0----

 

C   /   /   F   /   G   /   Am  /   /   C+  /   /   C   /  

7---7---7---0---3---2---5---3---3---3---3---3---3---2---3----

0---0---0---1---1---3---3---0---0---0---0---0---0---0---0----

0---0---0-----0---0---2---2----0---0-------0---0------0---0--

---0---0----2---2---0---0---2-----------1-----------0---0----

 

F   /   /   Fm  /   /   C   /   /   D7  /   /   F   /   /  

0---0---0---3---3---3---------------------------------------

1---1---1---1---1---1---3---3---3--2----2---2---1---1---1---

---0---0-------0---0-------0---0-------0---0----0--0---0----

2-----------1-----------0----------2------------2-----------

 

C   /   /   /   F   /   C   /   D7  /   /   F   /   /   C

----------------0-------------------------------------------

0---------------1-------3-------2---2---2---1---1---1---0---

0---------------0---0---0---0------0---0----0--0---0----0---

0---------------2-------0-------2-----------2-----------0---

Mike Gradwell

Ukulele and Classical Guitar Tuition

Contact

​Tel:  01524 941548

​Mail: mike.gradwell@gmail.com

 

Follow Mike
  • w-facebook
  • w-youtube