Black Magic Woman

Intro
Am  /   /   /   Am  /   /   /   Am  /   /   /   Am  /   /   /
--0-----0-----0---0-----0---------0-----0-----0---0-----0-------
3-----3-----2---3-----3---------3-----3-----2---3-----3---------
----4-----4---------4---------------4-----4---------4-----------
----------------------------------------------------------------


Am  /   /   /   G   /   /   /   G   /   /   /   Am  /   /   /   (x2)
7-------5---3---2---------------5-------3---2---0---------------
----------------------------------------------------------------
----------------------------------------------------------------
----------------------------------------------------------------


Verse
Am  /   /   /   Am  /   /   /   Am  /   /   /   E7  /   /   /
----0-0-0---------0-----------------0-0-0------------------------
------------3-0-3---------------------------3-0---0--------------
------------------------------------------------2----------------
-----------------------------------------------------------------
E7  /   /   /   Am  /   /   /   Am  /   /   /   Dm  /   /   /
------------3-3-3---0---0-------0--------------------------------
----------------------3---3-------3---0-----0--------------------
----------------------------------------0-2-----2----------------
-----------------------------------------------------------------


Dm  /   /   /   Am  /   /   /   E7  /   /   /   Am  /   /   /
----------0-0-0-3---0---0----------------------------------------
----------------------3---3-0---0-0-0-0--------------------------
------------------------------2---------2-0----------------------
--------------------------------------------2-0-2----------------


Outro
Am  /   /   /   G   /   /   /   Am  /   /   /   G   /   /   /
3-5-3-----------0---2-------0---3-5-3-----------0---2-------0-------
--------------------------------------------------------------------
--------------------------------------------------------------------
--------------------------------------------------------------------


Am  /   /   /   Am  /   /   /  
0---0---0---0---0---------------
--0---0---0---0-0---------------
----------------0---------------
2---2---2---2---2---------------

Mike Gradwell

Ukulele and Classical Guitar Tuition

Contact

​Tel:  01524 941548

​Mail: mike.gradwell@gmail.com

 

Follow Mike
  • w-facebook
  • w-youtube