Black Magic Woman

Intro   

Am  /   /   /   Am  /   /   /   Am  /   /   /   Am  /   /   /  

--0-----0-----0---0-----0---------0-----0-----0---0-----0-------     

3-----3-----2---3-----3---------3-----3-----2---3-----3---------    

----4-----4---------4---------------4-----4---------4-----------   

---------------------------------------------------------------- 

  

Am  /   /   /   G   /   /   /   G   /   /   /   Am  /   /   /   (x2)

7-------5---3---2---------------5-------3---2---0---------------  

----------------------------------------------------------------

----------------------------------------------------------------

----------------------------------------------------------------

 

Verse  

Am  /   /   /   Am  /   /   /   Am  /   /   /   E7  /   /   /  

----0-0-0---------0-----------------0-0-0------------------------

------------3-0-3---------------------------3-0---0--------------

------------------------------------------------2----------------

-----------------------------------------------------------------

 

E7  /   /   /   Am  /   /   /   Am  /   /   /   Dm  /   /   /            

----------2-2-2-3---0---0-------0--------------------------------

----------------------3---3---------3-0-----0--------------------

----------------------------------------0-2-----2----------------

-----------------------------------------------------------------

 

Dm  /   /   /   Am  /   /   /   E7  /   /   /   Am  /   /   /  

----------0-0-0-3---0---0----------------------------------------

----------------------3---3-0---0-0-0-0--------------------------

------------------------------2---------2-0----------------------

--------------------------------------------2-0-2----------------

 

Outro

/   Am  /   /   /   Am  /   /   /   G   /   /   /   G   /   /     

3-5-3---------------------------0---2-------0-------------------

----------------------------------------------------------------

----------------------------------------------------------------

----------------------------------------------------------------

 

/   Am  /   /   /   Am  /   /   /   G   /   /   /   G   /   /     

3-5-3---------------------------0---2-------0-------------------

----------------------------------------------------------------

----------------------------------------------------------------

----------------------------------------------------------------

 

/   Am  /   /   /   Am  /   /   /   Am  /   /   /  

----0---0---0---0---0---0---0---0---0---------------

------0---0---0---0---0---0---0---0-0---------------

------------------------------------0---------------

----2---2---2---2---2---2---2---2---2---------------