Blister In The Sun (intro)

Intro

G   /   C   /   G   /   C   /   G   /   C   /   G   /   /   /   (x2) 

----------------------------------------------------X-X---X-X---

----------------------------------------------------X-X---X-X---

--------0---------------0---------------0-----------X-X---X-X---

0---4-0-----4---0---4--0----4---0---4-0-----4---0---X-X---X-X---

Then add

G   /   C   /   G   /   C   /   G   /   C   /   G   /   /   /   (x2) 

----2---3---2-------2---3---2-------2---3---2-------X-X---X-X---

3-----3---------3------3--------3-----3---------3---X-X---X-X---

----------------------------------------------------X-X---X-X---

----------------------------------------------------X-X---X-X---