Blue Christmas

      D   /   /   /   D   /    /   /   A7  /   /   /   A7  /   /   /   

-----------------------------------------------------------------------

----0-2---------------2---0----------------0-----------------------0---

--2---2---------------2------------2---1-----------------------1-------

2-----2---------------2----------------0-------------------2-----------

 

A7  /   /   /   A7  /    /   /   D   /   /   /   D   /   /   /     

-----------------------------------------------------------------

3---------------3---2--------0-------2-------------------2---3---

1---------------1----------------2-------------------------------

2---------------2----------------2-------------------------------

 

D   /   /   /   D7  /    /   /   G   /   /   /   Bdim7   /   /     

0---------------0--------------------------------2---------------

2-------2---3---2--------3---2---0-------2---3---1---------------

2---------------0----------------2---------------2---------------

2---------------2----------------0---------------1-----------4---

 

A   /   /   /   A7  /    /   /   D   /   /   /   D   

---------------------------0---------------------0---

----------------0--------2-----2-0---------------2---

--------1---2---1----------------2---2-----------2---

2---------------0----------------2---------------2---

Mike Gradwell

Ukulele and Classical Guitar Tuition

Contact

​Tel:  01524 941548

​Mail: mike.gradwell@gmail.com

 

Follow Mike
  • w-facebook
  • w-youtube