Bourée Robert de Visée

/   I   /   /   /    I   /   /   /   I   /   /   /   I   /   /  

--0-1-------1---3----5-------5---0---1-----------3-1-1-0---------

3-------3----------------3---------------3-2-3-----------3-2-----

---------------------------------------------3-------2-------2---

----0-----------2----3-----------2---3---0-----------------------

 

/   I   /   /   /    I   /   /   /   I   /   /   /   I   /   /  

--0-1-------1---3----5-------5---0---1-----------3-1-0-----------

3-------3----------------3---------------3-2-3-------------------

---------------------------------------------3-------2-----------

----0-----------2----3-----------2---3---0-----------------------

 

/   I   /   /   /    I   /   /   /   I   /   /   /   I   /   /  

--0-1-------1---3----5-------5---0---1-----------3-1-1-0---------

3-------3----------------3---------------3-2-3-----------3-2-----

---------------------------------------------3-------2-------2---

----0-----------2----3-----------2---3---0-----------------------

 

/   I   /   /   /    I   /   /   /   I   /   /   /   I   /   /  

--0-1-------1---3----5-------5---0---1-----------3-1-0-----------

3-------3----------------3---------------3-2-3-------------------

---------------------------------------------3-------2-----------

----0-----------2----3-----------2---3---0-----------------------

 

/   I   /   /   /    I   /   /   /   I   /   /   /   I   /   /  

0---------------0----1-------0-----0-2---3---3---2---3-----------

--3-2-----2-3------------3---1---0---1---0-----------0-----------

--------0----------------------------2-------2-------0---0-2-3---

----2-------3---2----0-------2-----------------------------------

 

/   I   /   /   /    I   /   /   /   I   /   /   /   I   /   /  

3-5-6---5-3-1-0-1------------5---3-1-0---------------------------

------------------3--2-------------------3---3-----2-3-----------

----0--------------------2-------0---2---3---0---2---2-----------

----------------0----2-------3-------------------2---0-----------

Mike Gradwell

Ukulele and Classical Guitar Tuition

Contact

​Tel:  01524 941548

​Mail: mike.gradwell@gmail.com

 

Follow Mike
  • w-facebook
  • w-youtube