Busy Little Market Town HMHB

D   /   /   /   D   /   /   /   D   /   /   /   D   /   /   /

5---5---------------------------5---5---------------------------

--------5---5-------5-------5-----------5---5-------5-----------

2-------2-------3-------2-------2-------2-------3-------2-------

2-------2-------2-------2-------2-------2-------2-------2-------

 

D   /   /   /   D   /   /   /   D   /   /   /   D   /   /   /

----------------------------------------------------------------

----2-4-5---5---5-3-2---2-----------2-4-5---5---5-3-2-----------

2-4-----2-------2-----4-2-4-2---2-4-----2-------2-----4-2-------

2-------2-------2-------2-------2-------2-------2-------2-------

 

D   /   /   /   D   /   /   /   D   /   /   /   D   /   /   /

----------------------------------------------------------------

----2-4-5---5---5-3-2---2-----------2-4-5---5---5-3-2-----------

2-4-----2-------2-----4-2-4-2---2-4-----2-------2-----4-2-------

2-------2-------2-------2-------2-------2-------2-------2-----2-

 

D   /   /   /   D   /   /   /   D   /   /   /   D   /   /   /

5-------5-------5---5---5-----020-------------020---------------

----------------------------------------------------------------

2-------2-------2---2---2-------2---2---2---2-2-----2---2---2---

2-----2-2-----2-2-2-2-2-2-------2---2---2---2-2-----2---2---2---

 

D   /   /   /   D   /   /   /   C   /   /   /   D   /   /   /

------2-----5---4-5-7-5-4-------------0-----3---0-------0-------

2-3-5---5-------5---------7-5---0-2-3---3-------2-------2-------

2-------2-----------------------0-------0-------2-------2-------

2-------2-----------------------0-------0-------2-------2-------

 

D   /   /   /   D   /   /   /   C   /   A   /   D   /   /   /

------2-----5---4-5-7-5-4-------------2-0---------------------02

2-3-5---5-------5---------7-5---0-2-3---0-3-2-0-----------------

2-------2-----------------------0-------1-------2---2---2---2---

2-------2-----------------------0-------2-------2---2---2---2---

 

D   /   /   /   D   /   /   /   D   /   /   /   D   /   /   /

0-------------020-------------020-------------020---------------

----------------------------------------------------------------

2---2---2---2---2---2---2---2---2---2---2---2---2---2---2---2---

2---2---2---2---2---2---2---2---2---2---2---2---2---2---2---2---

 

D   /   /   /   D   /   /   /   D   /   /   /   D   /   /   /

----------------------------------------------------------------

----2-4-5---5---5-3-2---2-----------2-4-5---5---5-3-2-----------

2-4-----2-------2-----4-2-4-2---2-4-----2-------2-----4-2-------

2-------2-------2-------2-------2-------2-------2-------2-------

 

D   /   /   /   D   /   /   /   D   /   /   /   D   /   /   /

--------------------------------------------------------------02

----2-4-5---5---5-3-2---2-----------2-4-5---5---5-3-2-----------

2-4-----2-------2-----4-2-4-2---2-4-----2-------2-----4-2-------

2-------2-------2-------2-------2-------2-------2-------2-------

 

D   /   /   /   D   /   /   /   D   /   /   /   D   /   /   /

0-------------020-------------020-------------020---------------

----------------------------------------------------------------

2---2---2---2---2---2---2---2---2---2---2---2---2---2---2---2---

2---2---2---2---2---2---2---2---2---2---2---2---2---2---2---2---

 

D   /   /   /   D   /   /   /   C   /   /   /   D   /   /   /

------2-----5---4-5-7-5-4-------------0-----3---0-------0-------

2-3-5---5-------5---------7-5---0-2-3---3-------2-------2-------

2-------2-----------------------0-------0-------2-------2-------

2-------2-----------------------0-------0-------2-------2-------

 

D   /   /   /   D   /   /   /   C   /   A   /   D   /   /   /

------2-----5---4-5-7-5-4-------------2-0---------------------02

2-3-5---5-------5---------7-5---0-2-3---0-3-2-0-----------------

2-------2-----------------------0-------1-------2---2---2---2---

2-------2-----------------------0-------2-------2---2---2---2---

 

D   /   /   /   D   /   /   /   D   /   /   /   G   A   D   /

0-------------020-------------020---------------2---0-----------

------------------------------------------------3---0-----------

2---2---2---2---2---2---2---2---2---2---2---2---2---1---2-------

2---2---2---2---2---2---2---2---2---2---2---2---0---2---2-------

Mike Gradwell

Ukulele and Classical Guitar Tuition

Contact

​Tel:  01524 941548

​Mail: mike.gradwell@gmail.com

 

Follow Mike
  • w-facebook
  • w-youtube