Canary Jig

    G     C     G     C     /     D     G     /     G     C     G

--0-2-0-2-3-2-3-2-----0-----------0---------------0-2-0-2-3-2-3-2-

3---3-----0-----3-------3-2-0-2-3-2-3-2-3-------3---3-----0-----3-

----2-----0-----2-----------0-----2-----2-----------2-----0-----2-

----0-----0-----0-----------0-----2-----0-----------0-----0-----0-

 

    C     /     D     G     G     D     C     D     G     C     D

----0-----------0-----------2-3-2-0-2-0---0---------------------0-

------3-2-0-2-3-2-3-2-3-----3-----2-----3---3-2-3-2-------0-2-3-2-

----------0-----2-----2-----2-----2-----0-----2-----2-0-2-0-----2-

----------0-----2-----0-----0-----2-----0-----2-----0-----0-----2-

 

    G     /     C     D     G     G     C     D     G     /     C

----------------------------------2---2-3---3-5---5-2-------------

3-2-3-----------0---0-2---2-3-----3-3---0-0---5-5---3-----------0-

----2-----2---2-0-0---2-2---2-----2-----0-----2-----2-----2---2-0-

----0-----0-0---0-----2-----0-----0-----0-----2-----0-----0-0---0-

 

    D     Em    D     G     D     G     /     /     C     G     /

----------------0---0-2-3-2-0---------------0-2-0-2-3-2-3-2-----0-

--0-2---2-3---3-2-2---3-----2-3-2-3-------3---3-----0-----3-------

0---2-2---4-4---2-----2-----2-----2-----------2-----0-----2-------

----2-----0-----2-----0-----2-----0-----------0-----0-----0-------

 

    /     D     G     /     G     C     G     C     /     D     G

----------0---------------0-2-0-2-3-2-3-2-----0-----------0-------

3-2-0-2-3-2-3-2-3-------3---3-----0-----3-------3-2-0-2-3-2-3-2-3-

----0-----2-----2-----------2-----0-----2-----------0-----2-----2-

----0-----2-----0-----------0-----0-----0-----------0-----2-----0-

 

    G     D     C     D     G     C     D     G

----2-3-2-0-2-0---0---------------------0-------------

----3-----2-----3---3-2-3-2-------0-2-3-2-3-2-3-------

----2-----2-----0-----2-----2-0-2-0-----2-----2-------

----0-----2-----0-----2-----0-----0-----2-----0-------

Mike Gradwell

Ukulele and Classical Guitar Tuition

Contact

​Tel:  01524 941548

​Mail: mike.gradwell@gmail.com

 

Follow Mike
  • w-facebook
  • w-youtube