Canon in C Pachelbel's Canon

Section One

C   /   G   /   Am  /   Em  /   F   /   C   /   F   /   G   /   (x2)

----------------------------------------------------------------

0-------3---------------0-------1-------0-------1-------3-------

0-------2-------0-------4-------0-------0-------0-------2-------

0-------0-------2-------0-------2-------0-------2-------0-------

Add Section Two

C   /   G   /   Am  /   Em  /   F   /   C   /   F   /   G   /   (x2)

7-------5-------3-------2-------0---------------0-------2-------

0-------3-------0-------3-------1-------3-------1-------3-------

0-------2-------0-------4-------0-------0-------0-------2-------

0-------0-------2-------0-------2-------0-------2-------0-------

Add Section Three

C   /   G   /   Am  /   Em  /   F   /   C   /   F   /   G   /   (x2)

7-----7-5-----5-3-----3-2-----2-0-----0---------0-----0-2-----2-

0---0---3---3---0---0---3---3---1---1---3---0-3-1---1---3---3---

0-0-----2-2-----0-0-----4-4-----0-0-----0-0-----0-0-----2-2-----

0-------0-------2-------0-------2-------0-------2-------0-------

Add Section Four

C   /   G   /   Am  /   Em  /   F   /   C   /   F   /   G   /   (x2)

3---7---X-------0---3---7-------0---------------0-------2-------

0-------7-------0-------7-------1---1---3---0---1---1---3---3---

0-------7---7---0-------7---7---0-------0-------0-------2-------

0-------7-------2---------------2-------0-------2-------0-------

Add Section Five

C   /   G   /   Am  /   Em  /   F   /   C   /   F   /   G   /   (x2)

3---7---X---8---7-------X---Z---8-----8-7-----7-8-----8-X-----X-

0-------7-------8---8---7-------5---5---8---8---5---5---7---7---

0-0---0-7-7---7-9-9---9-7-7---7-5-5-----7-7-----5-5-----7-7-----

0-------7-----------------------5---------------5-------7-------

Add Section Six

C   /   G   /   Am  /   Em  /   F   /   C   /   F   /   G   /   (x2)

3-2-3-------0-2-3-2-3-7-X-7-X-Z-8-7-5-8-7-5-3-2-0-----3-2-3-5-2-

0-----0-3-3-----0-------7-------5-------0-------1-3-1---3-------

0-------2-------0-------7-------5-------0-------0-------2-------

0-------0-------2-------0-------5-------0-------2-------0-------

Add Section Seven

C   /   G   /   Am  /   Em  /   F   /   C   /   F   /   G   /   (x2)

3-2-3-------0-2-3-2-3-7-X-7-X-Z-8-7-5-8-7-5-3-2-0---------------

0-----0-3-3-----0-------7-------5-------0-------1-3-1-0---0-1---

0-------2-------0-------7-------5-------0-------0-------2-----2-

0-------0-------2-------0-------5-------0-------2-------0-------

Repeat Section One   (x2)     Finish on C

Mike Gradwell

Ukulele and Classical Guitar Tuition

Contact

​Tel:  01524 941548

​Mail: mike.gradwell@gmail.com

 

Follow Mike
  • w-facebook
  • w-youtube