Cantina Band

Cm  /   /   /   Cm  /   /   /   Cm  /   /   /   Cm  /   /   /

----3-------3-----3-----------------3---------------------------

3-------3-------3-------3-------3-------3---1-------------------

------------------------------------------------3-------0-------

0-------0-------0-------0-------0-------0-------0-------0-------

 

Cm  /   /   /   Cm  /   /   /   F   /   /   /   Bb  /   /   /

----3-------3-----3-----------------------------5-3-----1-------

3-------3-------3-------3-------1-------1-------1-------1-------

------------------------------------------------2-------2-------

0-------0-------0-------0-------2-------2-----------------------

 

Cm  /   /   /   Cm  /   /   /   Bb  /   /   /   Cm  /   /   /

----3-------3-----3-------------1---1---------------------------

3-------3-------3-------3-------1---1-----1-3-------------------

--------------------------------2---2-----------3-------0-------

0-------0-------0-------0-------3---3-----------0---------------

 

G#  /   Adim7   Eb  /   C   /   Bb  /   /   /   Eb  /   /   /

3-------3-------1-------3-------1-1-----------------------------

4-------2-------3-------0-------1-1-------1-3-------------------

3-------3-------3-------0-------2-2-------------3---------------

--------2-------0-------0-------3-3-------------0---------------

 

Cm  /   /   /   Cm  /   /   /   Cm  /   /   /   Cm  /   /   /

----------------------------------------------------------------

--3-----3---------3-----3---------3-----3---1-------------------

3-----3---------3-----3---------3-----3---------3-------0-------

0---------------0---------------0---------------0---------------

 

Cm  /   /   /   Cm  /   /   /   Cm  /   /   /   Bb  /   /   / 

----------------------------------------------------------------

--3-----3---------3-----3---------3-----3-------1---------------

3-----3---------3-----3---------3-----3---------2---------------

0---------------0---------------0---------------3-------3-------

 

Cm  /   /   /   Cm  /   /   /   Cm  /   /   /   Cm  /   /   / 

----------------------------------------------------------------

--3-----3---------3-----3---------3-----3---1-------------------

3-----3---------3-----3---------3-----3---------3-------0-------

0---------------0---------------0---------------0---------------

 

G#  /   /   /   /   /   /   /   Bb  /   /   /   Eb  /   /   /

--------------------------------1-1-----------------------------

------------------------4-------1-1-------1-3-------------------

--------0-------3---------------2-2-------------3---------------

1-------------------------------3-3-------------0---------------

 

 

 

 

 

 

Cm  /   /   /   Cm  /   /   /   Cm  /   /   /   Cm  /   /   /

----3-------3-----3-----------------3---------------------------

3-------3-------3-------3-------3-------3---1-------------------

------------------------------------------------3-------0-------

0-------0-------0-------0-------0-------0-------0-------0-------

 

Cm  /   /   /   Cm  /   /   /   F   /   /   /   Bb  /   /   /

----3-------3-----3-----------------------------5-3-----1-------

3-------3-------3-------3-------1-------1-------1-------1-------

------------------------------------------------2-------2-------

0-------0-------0-------0-------2-------2-----------------------

 

Cm  /   /   /   Cm  /   /   /   Bb  /   /   /   Cm  /   /   /

----3-------3-----3-------------1---1---------------------------

3-------3-------3-------3-------1---1-----1-3-------------------

--------------------------------2---2-----------3-------0-------

0-------0-------0-------0-------3---3-----------0---------------

 

G#  /   Adim7   Eb  /   C   /   Bb  /   /   /   Eb  /   /   /

3-------3-------1-------3-------1-1-----------------------------

4-------2-------3-------0-------1-1-------1-3-------------------

3-------3-------3-------0-------2-2-------------3---------------

--------2-------0-------0-------3-3-------------0---------------

 

Cm  /   /   /   Cm  /   /   /   Cm  /   /   /   Cm  /   /   /

--X---6-X---------X---6-X---------X---6-X---8---6---------------

--8---8-8---------8---8-8---------8---8-8-------8-------8-------

0---------------0---------------0---------------0-------0-------

0---------------0---------------0---------------0-------0-------

 

Cm  /   /   /   Cm  /   /   /   Cm  /   /   /   Bb  /   /   / 

--X---6-X---------X---6-X---------X---6-X-------8---------------

--8---8-8---------8---8-8---------8---8-8-------6-------6-------

0---------------0-----------0---0-------------------------------

0---------------0-----------0---0-------------------------------

 

Cm  /   /   /   Cm  /   /   /   Cm  /   /   /   Cm  /   /   /

--X---6-X---------X---6-X---------X---6-X---8---6---------------

--8---8-8---------8---8-8---------8---8-8-------8-------8-------

0---------------0---------------0---------------0-------0-------

0---------------0---------------0---------------0-------0-------

 

G#  /   /   /   /   /   /   /   Bb  /   /   /   Eb  /   /   /

--------------------------------1-1---------------------6-------

------------------------4-------1-1-------1-3-----------3-------

--------0-------3---------------2-2-------------3-------3-------

1-------------------------------3-3-------------0-------0-------

Mike Gradwell

Ukulele and Classical Guitar Tuition

Contact

​Tel:  01524 941548

​Mail: mike.gradwell@gmail.com

 

Follow Mike
  • w-facebook
  • w-youtube