Captain Pugwash

F     /     /     /     F     /     /     /     

------------------------------------8-----------

----------------------8-5-----5---8-8---8-5-----

5-5-5-5-----5-5-5-5-----5---5-------5---------5-

5-----------5-----------5-----------5-----------

 

C     /     /     /     C     /     /     /     

------------------------------------3-----------

----------------------3-0-----0---3-3---3-0-----

0-0-0-0-----0-0-0-0-----0---0-------0---------0-

0-----------0-----------0-----------0-----------

 

F     /     /     /     F     /     /     /     

------------------------------------8-----8-----

----------------------8-5-----5---8-8-----8-----

5-5-5-5-----5-5-5-5-----5---5-------5-----5-----

5-----------5-----------5-----------5-----5-----

 

C     /     G     /     C     /     /     /     

7---X-7-----------------------------------------

8---------8-X---8-7---X-8-----------8-----5---6-

7-----------7-----------7-----7-----7-----------

------------------------------------------------

 

F     /     /     /     Bb    /     /     /     

------------------------5---7-8---7-5-----------

8---8-8-----8---8-8---8-6-----------6---8-6---5-

5-----------5-----------5-----------5-----------

5-----------5-----------------------------------

 

Gm    /     /     /     C     /     /     /     

1---3-5---3-1---0-------------------------------

3-----------3-----3---1-0---1-3---1-0---------0-

2-----------2-----------0-----------0---0-2-----

0-----------0-----------0-----------0-----------

 

F     /     F7    /     Bb    /     Bbm   /     

------------------------------------------------

1-1-1-1-----------------------------------------

0-----------3-3-3-3-----2-2-2-2-----1-1-1-1-----

2-----------2-----------3-----------3-----------

 

C     /     /     /     F     /     /     /     

----8-7---5-3---1-0-----------0-----------------

------------0---------3-1-----1-----1-----------

0-----------0-----------0-----0-----0-----------

0-----------0-----------2-----2-----2-----------

Mike Gradwell

Ukulele and Classical Guitar Tuition

Contact

​Tel:  01524 941548

​Mail: mike.gradwell@gmail.com

 

Follow Mike
  • w-facebook
  • w-youtube