Captain Pugwash

F                                    C
----------------------------8------------------------------------3--------
------------------8-5---5-8-8-8-5---------------------3-0---0--3-3-3-0----
5-5-5-5--5-5-5-5----5-5-----------5--0-0-0-0--0-0-0-0---0--0-----0-----0--
5--------5----------5----------------0--------0---------0--------0--------


F                                C        G       C
----------------------------8--8-7-10-7------------------
------------------8-5---5-8-8----8------8-x-8-7-x-8---8--
5-5-5-5--5-5-5-5----5-5----------7--------7-------7-7-7--
5--------5----------5------------------------------------


    F              Bb                 Gm                 C7
-------------------5--7-8--7-5-------------5-------------------------
5-6-8-8-8--8--8-8--6------------8-7-5-6--8---8-6--5------0--1-3-1-0--
----5------5-------5------------------5-------------7-5--0-----------
----5------5---------------------------------------------------------


      F   F7 Bb Bbm     C7               F
---------------------------8-7-5----------------
----0-1-1------------------------8-6-5-----5----
0-2---0---3-3-2-2--1-1--0--------------7-5-5-5--
------2---2-2-3-3--3-3--0----------------5---5--

 

x=10

Mike Gradwell

Ukulele and Classical Guitar Tuition

Contact

​Tel:  01524 941548

​Mail: mike.gradwell@gmail.com

 

Follow Mike
  • w-facebook
  • w-youtube