Cavatina

D   /   /   F#m /   /   G   /   /   Em  /   /   A7  /   /  

0-----------0------------02----------------------02---------

------------------------3-----------------------3-----------

------------------------------------------------------------

------------------------------------------------------------

 

A7  /   /   Dmaj7   /   D   /   /   Gmaj7   /   Cmaj7   /  

--------0---0-----------------------------------------------

----------3---------------------3-2-2-----------0-----------

--------------------------------------------------------2---

------------------------------------------------------------

 

Fmaj7   /   Bbmaj7  /   Em7 /   /   A7  /   /   D   /   /  

------------------------------------------------------------

0---------------------------------------0-------------------

------------2-----------2-------------------1---2-----------

------------------------------------------------------------

 

D   /   /   D   /   /   F#m /   /   G   /   /   Em  /   /  

------------0-----------0------------02--------------------- 

------------------------------------3----------------------- 

------------------------------------------------------------ 

------------------------------------------------------------ 

A7  /   /   A7  /   /   Dmaj7   /   D   /   /   Gmaj7   /  

-02-----------------0---0-----------------------------------

3---------------------3---------------------3-2-2-----------

------------------------------------------------------------

------------------------------------------------------------

 

Cmaj7   /   Fmaj7   /   Bbmaj7  /   Em7 /   /   A7  /   /  

------------------------------------------------------------

0-----------0---------------------------------------0-------

--------2---------------2-----------2-------------------1---

------------------------------------------------------------

 

D   /   /   D   /   /   Bm  /   /   E7  /   /   Amaj7   /  

----------------------0-5-----------5-------4-2-2---4-5-4---

--------------------2---------------------------------------

2-----------------2-----------------------------------------

------------------------------------------------------------

 

Amaj7   /   Em  /   /   A7  /   /   Dmaj7   /   D7  /   /     

--------2-0-----------------0-------------------------------

------------3-----------3-------0---2---------------------0-

--------------------------------------------------------2---

------------------------------------------------------------

 

Gmaj7   /   Cmaj7   /   Fmaj7   /   Bbmaj7  /   Em7 /   /  

------------------------------------------------------------

2-----------0-----------0-----------------------------------

--------------------2---------------2-----------2-----------

------------------------------------------------------------

 

A7  /   /   D   /   /   D   /   /   D   /   /   F#m /   /  

------------------------------------0-----------0-----------

----0-------------------------------------------------------

--------1---2-----------------------------------------------

------------------------------------------------------------

 

G   /   /   Em  /   /   A7  /   /   A7  /   /   Dmaj7   /  

-02----------------------02-----------------0---0-----------

3-----------------------3---------------------3-------------

------------------------------------------------------------

------------------------------------------------------------

 

D   /   /   Gmaj7   /   Cmaj7   /   Fmaj7   /   Bbmaj7  /  

------------------------------------------------------------

--------3-2-2-----------0-----------0-----------------------

--------------------------------2---------------2-----------

------------------------------------------------------------

 

Em7 /   /   A7  /   /   D   /   /   D*  /   /   D   /   /

----------------------------------------------0-4---5-------

----------------0---------------------------2---2-----------

2-------------------1---2-----------------2-----2-----------

------------------------------------------------------------

 

D   /   /   D   /   /   Dsus4  D   /

---------------------------------------

----------------0-2-0---3------2-------

1---2-------2---------2-2------2-------

2-----------2-----------2------2-------

Mike Gradwell

Ukulele and Classical Guitar Tuition

Contact

​Tel:  01524 941548

​Mail: mike.gradwell@gmail.com

 

Follow Mike
  • w-facebook
  • w-youtube