Chariots of Fire

  /     C     /     /     /     C     /     /
------0-----------------------0-----------------
--1-3---3-----0-----------1-3---3---------------
0-------0---------------0-------0---------------
--------0-----------------------0---------------
  /     C     /     /     /     C     /     /
------0-----------------------------------------
--1-3---3-----0---------0-1-0-------------------
0-------0---------------------0-0---------------
--------0-----------------------0---------------

Mike Gradwell

Ukulele and Classical Guitar Tuition

Contact

​Tel:  01524 941548

​Mail: mike.gradwell@gmail.com

 

Follow Mike
  • w-facebook
  • w-youtube