Chopsticks

G7          C           G7          C
------------------------2-2-2-2-2-2-3-3-3-3-2-0-
1-1-1-1-1-1-0-0-0-0-0-0-----------------------0-
------------------------2-2-2-2-2-2-0-0-0-0-2---
0-0-0-0-0-0-0-0-0-0-0-0-------------------------


G7          C           G7          C
------------------------2-2-2-2-2-2-3-----3-----
1-1-1-1-1-1-0-0-0-0-0-0-----------------0-------
------------------------2-2-2-2-2-2-0-----0-----
0-0-0-0-0-0-0-0-0-0-0-0-----------------0-------

Mike Gradwell

Ukulele and Classical Guitar Tuition

Contact

​Tel:  01524 941548

​Mail: mike.gradwell@gmail.com

 

Follow Mike
  • w-facebook
  • w-youtube