Christmas Alphabet

Intro  C Am Dm G

 

C     /     Am    /     C     /     Am    /     C           Am     

------------0---0-0-----------------0-----------------------0---0-0-----

3---3-3---0-0-----0---0-3---3-3---0-0-----------3---3-3---0-0-----0---0-

0-----0-----0-----0-----0-----0-----0-----0-----0-----0-----0-----0-----

0-----0-----2-----2-----0-----0-----2-----2-----0-----0-----2-----2-----

 

Dm    /     G     /     Dm    /     G     /     Dm    /     G     /

------------------------0---0-0-----2---2-2-----0---0-0-----2-----------

1---3-1---0-------------1-----1---1-3-----3---3-1-----1---1-3-----------

2-----2-----2-----2-----2-----2-----2-----2-----2-----2-----2-----2-----

2-----2-----0-----0-----2-----2-----0-----0-----2-----2-----0-----0-----

 

Dm    /     G     /     C     /     G     /     C     /     C7    /

0---0-0-----2---2-2---0-----0-----0-----0-------3---3-3---3-1-----1-----

1-----1---1-3-----3-----3-----3-----3-----3-----0-----0-----0-----0-----

2-----2-----2-----2-----0-----0-----2-----2-----0-----0-----0-----0-----

2-----2-----0-----0-----0-----0-----0-----0-----0-----0-----0-----0-----

 

F     /     /     /     D     /     D7    /     G     /     G     /

0---3-0-----0-----------5---5-5---5-3-----3-----2---2-3---4-5-----------

1-----1-----1-----------2-----2-----2-----2-----3-----3-----3-----------

0-----0---0-0-----0-----2-----2-----2-----2-----2-----2-----2-----2-----

2-----2-----2-----2-----2-----2-----2-----2-----0-----0-----0-----0-----

 

C     /     Am    /     C     /     A     /     F     /     Em    / 

------------0---0-0-----------------0-----------0---0-0---0-2---2-2---2-

3---3-3---0-0-----0---0-3---3-3---0-0-----------1-----1-----3-----3-----

0-----0-----0-----0-----0-----0-----1-----1-----0-----0-----4-----4-----

0-----0-----2-----2-----0-----0-----2-----2-----2-----2-----0-----0-----

 

Am    E7    Am    /     F     /     Fm    /     C     /     A     /    

3---3-2---2-0-----------5---5-5-----7---5-------5---3-5---3-2---------0-

0-----0-----0-----------5-----5---8-------8---7-0-----0-----0-----------

0-----2-----0-----0-----5-----5-----5-----5-----0-----0-----1-----1-----

2-----1-----2-----2-----5-----5-----5-----5-----0-----0—----2-----2-----

 

Dm    Em    F     G     Dm    G     C     /

------------------------0-----2-----3-------

------------1-1-1-3---3-1---1-3---3-0-------

2-2-2-4---4-0-----2-----2-----2-----0-----0-

2-----0-----2-----0-----2-----0-----0-----0-

Mike Gradwell

Ukulele and Classical Guitar Tuition

Contact

​Tel:  01524 941548

​Mail: mike.gradwell@gmail.com

 

Follow Mike
  • w-facebook
  • w-youtube