Cockles and Mussels

/   G   /   /   G   /   /   D   /   /   D   /   /   G   /   /

------------------2---------0---0---0---0-3-----0---2---0-------

----3---3---3---3-------3---2-----------2-----------3-------3---

2---2-----------2-----------2-----------2-----------2-----------

----0-----------0-----------2-----------2-----------0-----------

 

G   /   /   A   /   /   D   /   /   G   /   /   G   /   /   D

5---3---2---2---0-------0-------------------------2---------0---

3-----------0-------3---2-----------3---3---3---3-------3---2---

2-----------1-----------2-------2---2-----------2-----------2---

0-----------2-----------2-----------0-----------0-----------2---

 

/   /   D   /   /   G   /   D7  G   /   D7  G   /   D   G   / 

0---0---0-3-----0---2-5-----3---2-5-----3---2-------0-----------

--------2-----------3-------2---3-------2---3-----3-2---3-------

--------2-----------2-------2---2-------2---2-------2---2-------

--------2-----------0-------2---0-------2---0-------2---0-------

 

/   G   /   /   G   /   /   D   /   /   D   /   /   G   /   D7

------------------2---------0-----0-0---0-3-----0---2-5-----3---

----3-----3-3---3-------3---2-----------2-----------3-------2---

2---2-----------2-----------2-----------2-----------2-------2---

----0-----------0-----------2-----------2-----------0-------2---

 

G   /   D7  G   /   D   G   /  

2-5-----3---2-------0-----------

3-------2---3-----3-2---3-------

2-------2---2-------2---2-------

0-------2---0-------2---0-------

Mike Gradwell

Ukulele and Classical Guitar Tuition

Contact

​Tel:  01524 941548

​Mail: mike.gradwell@gmail.com

 

Follow Mike
  • w-facebook
  • w-youtube