Cock O' The North

/ / C / / C / / C / / C / / C / / C / / G / / G
----------------------0-------------------------
3-1-0---0-0-----0---3-0---3-0---0-0-----------3-
----0-----0-2-0-0-----0-----0-----0-2-0-2—----2-
----0-----0-----0-----0-----0-----0-----0-----0-

 

/ / C / / C / / C / / C / / C / / G / / C / / C
----------------------0-------------------------
--1-0---0-0-----0---3-0---3-0---0---0-----------
----0-----0-2-0-0-----0-----0-----2---2-0—------
----0-----0-----0-----0-----0-----0-----0-------

 

/ / C / / C / / C / / C / / C / / C / / G / / G
----3-----0-----3-----0-------------------------
--3-0---3-0---3-0---3-0---3-0---0-0-------------
----0-----0-----0-----0-----0-----0-2-0-2—------
----0-----0-----0-----0-----0-----0-----0-------

 

/ / C / / C / / C / / C / / C / / G / / G / / G
----3-----0-----3-----0-------------------------
--3-0---3-0---3-0---3-0---3-0---0---0-----------
----0-----0-----0-----0-----0-----2---2-0—------
----0-----0-----0-----0-----0-----0-----0-------

Mike Gradwell

Ukulele and Classical Guitar Tuition

Contact

​Tel:  01524 941548

​Mail: mike.gradwell@gmail.com

 

Follow Mike
  • w-facebook
  • w-youtube