Come On Eileen

Dexy's Midnight Runners

Intro

  F   /   C   /   F   /   Bb  /   /   /   F   /   C   /   /   / (x2)

--3---5---3-------3---5---3-1-1---1---3---0---------------------

--1-------0-------1-------1-----1-1-------1---1-----------------

0-0-------0-----0-0-------2-------2-------0-------0-------------

--2-------0-------2-------3-------3-------2-------0-------------

 

  C   /   /   /   Em  /   /   /   /   F   /   /   /   C   /   G   (x2)

------0-----0---0-------0-----------------0------------------------

--3-------3---3---3-------3-----------3-------3-----0133-33-0133-33

--0-------0-------4-------4-----------0-------0-------0-------2----

--0-------0-------0-------0-----------2-------2-------0-------0----

                                                   (come on Eileen)

 

C                        Em                 F                                           C                         G

Poor old Johnny Ray sounded sad upon the radio moved a million hearts in mono

C                      Em     F                                               C  G  C                              

   Our mothers cried, sang along, who'd blame them         You've grown (you're grown up),

Em                                        F                                          C G

So grown (so grown up), now I must say more than ever        (come on Eileen)

C                 Em                 F                       C                         G           (G Em G Em G Em G)

Toora loora toora loo rye aye and we can sing just like our fathers

Mike Gradwell

Ukulele and Classical Guitar Tuition

Contact

​Tel:  01524 941548

​Mail: mike.gradwell@gmail.com

 

Follow Mike
  • w-facebook
  • w-youtube