Could It Be Magic

Am  /   Dm  /   E7  /   Am  /   F   /   Bb  /   C   /   F   /
7-------8-------7-------3-------3-------5-------3-------0-------
8-------10------7----10-0-------1-------6-------3-----6-1-------
9-------9-------8---------------0-------5-------4-------0-------
------------------------2-------2-------------------------------
E7  /   A7  /   Dm  /   Am  /   B7  /   E   /   B7  /   E   /
2-------4-------7-----5-3-------2-------7-------11----9-7-------
0-------0-------5-------0-------2-------7-------7-------7-------
2-------1-------5-------0-------3-------8-------9-------8-------
1-------2---------------2---------------------------------------
Am  /   F   /   C#7 /   Cmaj7   D7  /   B7  /   E   /   E7  /
3-------3-------2-------2-------0-------2-----------------------
0-------1-------1-------0-------2-------2-------4-----2-0-------
0-------0-------1-----3-0-------0-------3-------4-------2-------
2-------2-------1-------0-------2-------2---------------1-------
Am  /   Dm  /   E   /   Am  /   F   /   Bb  /   E7  /   Am  /
7-------8-------7---------------3-------5-------3-2-----0-------
0-------5-------7----10-8-------1-------6-------0-------0-------
0-------5-------8-------9-------0-------5-------2-------0-------
--------------------------------2---------------1-------2-------

Mike Gradwell

Ukulele and Classical Guitar Tuition

Contact

​Tel:  01524 941548

​Mail: mike.gradwell@gmail.com

 

Follow Mike
  • w-facebook
  • w-youtube