The Coventry Carol

Gm  /   D7  Gm  /   /   F   /   Gm  D7  /   /   Gm   

--------------------1---0---------------------------

3---3---2---3-------3---1-------3---2-----------3---

2---2---0---2-------2---0-------2---0-----------2---

0---0---2---0-------0---2-------0---2-----------0---

 

D7  Gm  Cm  D7  Gm  /   /   F   /   Gm  F   /   Gm 

0---1---3---0-----------5---3-------1---0-------1---

2---3---3---2---3-----------1-------3---1-------3---

0---2---3---0---2-----------0-------2---0-------2---

2---0---0---2---0-----------2-------0---2-------0---

 

F   /   Gm  D7  /   /   Gm  D7  Gm  Cm  D7  G   /  

0-----------------------------------3---0---2-------

1-------3---2-----------3---2---3---3---2---3-------

0-------2---0-----------2---0---2---3---0---2-------

2-------0---2-----------0---2---0---0---2---0-------

Mike Gradwell

Ukulele and Classical Guitar Tuition

Contact

​Tel:  01524 941548

​Mail: mike.gradwell@gmail.com

 

Follow Mike
  • w-facebook
  • w-youtube