Day After Day Badfinger

Intro  

F   /   /   /   Bb  /   /   /   F   /   /   /   F   /   /  

----------------6---6-5-------------------------8-----------

5---5-6-8-------6-----6---8-6---8---------------8-----------

5-------5---5---5-----5---------5-----------5---5-----------

5-------5-----------------------5---------------5-----------

F                      Bbsus4 Bb            F                              Bbsus4 Bb             F

    I remember finding out about you,   every day my mind is all around you,

C                                   G                   Bb  F Gm F

   Looking out from my lonely room, day after day,

C                                  G                   Bb F      Gm F*                  

   Bring it home, baby, make it soon, I   give my  love to you

F*  /   /   /   Bb  /   /   /   F   /   /   /   F   /   /   /   F

----------------------------------------------------------------

--1-0-1---1-0-1---1-0-1---1-0-1---1-0-1---1-0-1---1-0-1---------

0-------0-------2-------2-------0-------0-------0-------0-------

----------------------------------------------------------2-0-2-

Mike Gradwell

Ukulele and Classical Guitar Tuition

Contact

​Tel:  01524 941548

​Mail: mike.gradwell@gmail.com

 

Follow Mike
  • w-facebook
  • w-youtube