Don't Let Me Be Misunderstood The Animals

Intro                                                                                                                                                         

Am  /   /   /   Am  /   G   /   F   /   /   /   /   /   G   /   (x2)

0---0---0---0---0-------------------0---0---2---3-------2-------

0-----3-------3-0-------3-------1-----3---------1-------3-------

0---------------0-------2-------0---------------0-------2-------

2---------------2-------0-------2---------------2-------0-------

 

Am                          G                     F                                         E7

Baby, do you understand me now,     sometimes I feel a little mad

        Am                                                      G

Well don't you know that no one alive can always be an angel, 

F                                         E7

    When things go wrong I seem to be bad

 

C                                     Am                      

 I'm just a soul whose intentions are good, 

F             F                                                              Am*

  Oh Lord   please don't let me be misunderstood

 

Am* /   /   /   Am  /   G   /   F   /   /   /   /   /   G   /    (x2)

0---0---0---0---0-------------------0---0---2---3-------2-------

0-----3-------3-0-------3-------1-----3---------1-------3-------

0---------------0-------2-------0---------------0-------2-------

2---------------2-------0-------2---------------2-------0-------

 

Mike Gradwell

Ukulele and Classical Guitar Tuition

Contact

​Tel:  01524 941548

​Mail: mike.gradwell@gmail.com

 

Follow Mike
  • w-facebook
  • w-youtube