Dona Nobis Pacem

G   /   /   D7  /   /   G   /   /   D7  /   /   C   /   /  

----2-------0---3-------2---0-------------------7---5-3-2-0-

3---3-------2-----------3-------3---3---2-------0-----------

--2-2-------2-2---------2-----------2-----------0-----------

0---0-------2-----------0-----------2-----------0-----------

 

G   /   /   D7  /   /   G   /   /   G   /   /   D7  /   /  

5-----3-2---2-----------------------5-----------5-----------

3-----------2-5-3---2---3-----------3-----------2-----------

2-----------2-----------2-----------2-----------2-----------

0-----------2-----------0-----------0-----------2-----------

 

G   /   /   D7  /   /   C   /   /   G   /   /   D7  /   /  

5---3---2---2-----------7---7-------5---5-------5-3-2-------

3-----------2---5-------0-----------3-----------2-------5---

2-----------2-----------0-----------2-----------2-----------

0-----------2-----------0-----------0-----------2-----------

 

G   /   /   G   /   /   D   /   /   G   /   /   D7  /   /  

------------------------------------------0-2-3-5-----------

3-----------3-----------2-----------3-----------2-----------

2-----------2-----------2-----------2-----------2---2-------

0-----------0-----------2-----------0-----------2-----------

 

C   /   /   G   /   /   D7  /   /   G   /   /  

3---3-------2---2-----------5-------------------

0-----------3-----------2-5-----2---3-----------

0-----------2-----------2-----------2-----------

0-----------0-----------2-----------0-----------

Mike Gradwell

Ukulele and Classical Guitar Tuition

Contact

​Tel:  01524 941548

​Mail: mike.gradwell@gmail.com

 

Follow Mike
  • w-facebook
  • w-youtube