Douce France Charles Trenet

Intro

/   F   /   Dm  /   Gm  /   C7  /   F   /   Dm  /   Gm  /   C7

0---0----------------------0-------------------------------0----

---41-------1-----------3---3--1----1-------------------3---3--1

----0-------2-------2-------0---2--00-------2-------2-------0---

----2-------2-------0-------0-------2-------2-------0-------0---

 

/   F   /   Dm  /   Gm  /   C7  /   F   /   Gm  /   C   /   /

-------------------------------------------01------13-----------

----1--------------------------01--31-----1-3-----3-0-----------

2--00-------2-------2------02-------0----0--2----2--0-----------

----2-------2-------0---3-----------2---2---0---0---0-----------

F                                                                   Gm                

Il revient à ma mémoire des souvenirs familiers,

                                C7    C5 C                                   F  F F                                Dm

Je revois ma blouse noire,         lorsque j'étais écolier        sur le chemin de l'école

            C7               F                  Gm7                 Dm                        G7               C7

Je chantais à pleine voix, des romances sans paroles, vieilles chansons d'autrefois

 

Chorus

             F    Dm Gm           C7                 F   Dm Gm   

Douce France,        cher pays de mon enfance

                C7                   F  Dm Gm           C7                        F        Dm Gm C7

Bercée de tendre insouciance,         je t'ai gardée dans mon cœur

Mike Gradwell

Ukulele and Classical Guitar Tuition

Contact

​Tel:  01524 941548

​Mail: mike.gradwell@gmail.com

 

Follow Mike
  • w-facebook
  • w-youtube