Dreaming Of You The Coral

Intro

Am/ / / Am/ / / F / / / F / / / (x3)   (bass only first time)   
0--0----0--0--------------------
0---0--00---0-0-1--1----1--1--3-
0-------0-------0---0--00---0---
2-------2-------2-------2-------

Am                                                      F                               Am
       What's up with my heart when it skips a beat (skips a beat)
                                              F                               C      
Can't feel no pavement right under my feet                        
                                                             (under my feet)      

                                                 G                                      F                   
Up in my lonely room                   when I'm dreaming of you, oh what can I do,
                                         (wah oo…………………ooh       oo………………ooh)
          Am                                   F                                       Am F E
               I still need you,   but       I don't want you now
(wah oo………………ooh     wah oo………………………ooh) 

 

Instrumental

Am/ / / Am/ / / F / / / F / / / Am/ / / Am/ / / F / / / F / / /
--0-2-3-5---3-2-0-33--------------0-2-3-5---3-2-0-33------------
0-------0-------1---------------0-------0-------1---------------
0-------0-------0---------------0-------0-------0---------------
2-------2-------2---------------2-------2-------2---------------

C / / / C / / / G / / / G / / /    F / Am / F / Am  F E
--------------------------------
0-3-0-3-0-30------0---0---0--0--
0-------0----20-2---2---2--2--2-
0-------0-------0-------0-------

Mike Gradwell

Ukulele and Classical Guitar Tuition

Contact

​Tel:  01524 941548

​Mail: mike.gradwell@gmail.com

 

Follow Mike
  • w-facebook
  • w-youtube