Dreams The Cranberries

Intro  F / Bbmaj7 / C / F /

F   /   /   /   F   /   /   /   Bb  /   /   /   Bb  /   /   /

--3-0---3-0-----3--30---3-0-----3--30---3-0-----3--30---3-0-----

1-----1-1-------1-----1-1-------1-----1-1-------1-----1---------

0-------0-------0-------0-------2-------2-------2---------------

2-------2-------2-------2-------3-------3-------3---------------

 

C   /   /   /   C   /   /   /   F   /   /   /   F   /   /   /

3--31---3-1-----3--31---3-1-----3--30---3-0-----3--30---3-0-----

3-----3-3-------3-----3-3-------1-----1-1-------1-----1-1-------

0-------0-------0-------0-------0-------0-------0-------0-------

0-------0-------0-------0-------2-------2-------2-------2-------

F               Bb                               C                             F      

     Oh my life is changing every day, every possible way

                   Bb                                          C                                     F       

Though my dreams, it's never quite as it seems, never quite as it seems

 

                                     Bb                                                C                                          F 

I know I felt like this before, but now I'm feeling it even more because it came from you

                                Bb                                               C                                    F    

Then I open up and see the person fumbling here is me,   a different way to be

 

Mike Gradwell

Ukulele and Classical Guitar Tuition

Contact

​Tel:  01524 941548

​Mail: mike.gradwell@gmail.com

 

Follow Mike
  • w-facebook
  • w-youtube