Echo Beach Martha And The Muffins

Intro

Am  /   /   /   D   /   C   /   Am  /   /   /   D   /   C   /   (x2)

0---3---2-------5---5---3---2---0---3---2-------5---5---3-------

0---------3-----2-------0-------0---------3-----2-------0---3---

0---------------2-------0-------0---------------2-------0-------

2---------------2-------0-------2---------------2-------0-------

 

Am  /   /   /   G   /   /   /   Em  /   /   /   F   /   G   /   (x2)

3-3-----3-------5--55---2-----------------------0--00---2---2--- 

0---------------3-----------3-------3-3-3-------1-------3-------

0---------------2---------------4---------------0-------2-------

2---------------0---------------0---------------2-------0-------

  Am                                D          C          Am  D C      Am                D             C          Am   D C

I know it's out of fashion, and a trifle uncool,      but I can't help it,  I'm a romantic fool.

         Am               D                      C         Am    D C      Am            D                     C         Am    D C

It's a habit of mine   to watch the sun go down.      On Echo Beach,   I watch the sun go down.   

 

         G                                                D                         G                                     D

From nine to five I have to spend my time at work. My job is very boring I'm an office clerk

        Am                                                Em                Am                                       Em

The only thing that helps me pass the time away Is knowing I'll be back in Echo Beach some day

 

Mike Gradwell

Ukulele and Classical Guitar Tuition

Contact

​Tel:  01524 941548

​Mail: mike.gradwell@gmail.com

 

Follow Mike
  • w-facebook
  • w-youtube