El Noi de la Mare

C           G           F           Dm         

------------------0-2---3-----2-0---0-----------

0-----1-3---3-----------1-----------1-------3---

0-----------2-----------0-----------2-----------

0-----------0-----------2-----------------------

 

C           G           F           G         

------------------0-2---3-----2-0---------------

0-----1-3---3-----------1-----------3-----------

0-----------2-----------0-----------2-----------

0-----------0-----------2-----------0-----------

 

C           D7sus4      G           C         

------------------------------------------------

0-----1-3---3-----1-0---------------0-----------

0-----------0-----------2-----0-2---0-------0---

0-----------2-----------0-----------0-----------

 

C           D7sus4      G           C         

------------------------------------------------

0-----1-3---3-----1-0---------0-----------------

0-----------0-----------2-------2---0-----------

0-----------2-----------0-----------0-----------

 

F           C           G           C         

3-----2-0---------------------------------------

1-----------3-----1-0---------------0-----------

0-----------0-----------2-----0-2---0-------0---

2-----------0-----------0-----------0-----------

 

F           C           G           C         

3-----2-0---------------------------------------

1-----------3-----1-0---------0-----------------

0-----------0-----------2-------2---0-----------

2-----------0-----------0-----------0-----------

Mike Gradwell

Ukulele and Classical Guitar Tuition

Contact

​Tel:  01524 941548

​Mail: mike.gradwell@gmail.com

 

Follow Mike
  • w-facebook
  • w-youtube