English Dance Anon

/   C   /   /   /   F   /   /   /   C   /   /   /   F   /   /   

----------------------------------------------------------------

1---0-------------0-1---1---1---1---0-------------0-1---1---1---

----0---0---0---2---0-----------0---0---0---0---2---0-----------

----0---------------2-----------2---0---------------2-----------

 

/   C   /   /   /   C   /   /   /   F   /   C   /   F   /   /  

0-----0-1-0---------------------3-1-0---------------------------

1---3-------3-1-0-------------------1---3-1-0-1-3-0-1-----3-1---

0---0-------------2-0-------0-------0-------0-------0-----------

2-----------0-----------0-----------2-------0-------2-----------

 

/   C   /   /   /   F   /   /   /   C   /   /   /   F   /   /   

----------------------------------------------------------------

1---0-------------0-1---1---1---1---0-------------0-1---1---1---

----0---0---0---2---0-----------0---0---0---0---2---0-----------

----0---------------2-----------2---0---------------2-----------

 

/   C   /   /   /   C   /   /   /   F   /   C   /   F   /   /  

0-----0-1-0---------------------3-1-0---------------------------

1---3-------3-1-0-------------------1---3-1-0-1-3-0-1-----3-1---

0---0-------------2-0-------0-------0-------0-------0-----------

2-----------0-----------0-----------2-------0-------2-----------

 

/   C   /   /   /   F   /   /   /   G   /   /   /   C   /   /   

--------------------0---0---0-----0-2---2---2---0-2-3-------3---

0-1-3---3---3---1-3-1-----------3---3---------------3---3-------

----0---------------0---------------2---------------0-----------

----0---------------2---------------0---------------0-----------

 

/   C   /   /   /   C   /   /   /   F   /   C   /   F   /   /  

0-----0-1-0---------------------3-1-0---------------------------

----3-------3-1-0-------------------1---3-1-0-1-3-0-1-----3-1---

----0-------------2-0-------0-------0-------0-------0-----------

------------0-----------0-----------2-------0-------2-----------

 

/   C   /   /   /   F   /   /   /   G   /   /   /   C   /   /   

--------------------0---0---0-----0-2---2---2---0-2-3-------3---

0-1-3---3---3---1-3-1-----------3---3---------------3---3-------

----0---------------0---------------2---------------0-----------

----0---------------2---------------0---------------0-----------

 

/   C   /   /   /   C   /   /   /   F   /   C   /   F   /   /  

0-----0-1-0---------------------3-1-0---------------------------

----3-------3-1-0-------------------1---3-1-0-1-3-0-1-----3-1---

----0-------------2-0-------0-------0-------0-------0-----------

------------0-----------0-----------2-------0-------2-----------

Mike Gradwell

Ukulele and Classical Guitar Tuition

Contact

​Tel:  01524 941548

​Mail: mike.gradwell@gmail.com

 

Follow Mike
  • w-facebook
  • w-youtube