Everybody Wants To Be A Cat

Intro

Em  /   Eb+ /   G   /   Gb5 /   Cmaj7/   C6  /   C7  /   B7  /  

----2-------2-------2-------2---2---2---0---0---1---1---2---2---

---3---3---3---3---3---3---3---30---0---0---0---0---0--02---2---

4-------3-------2-------1-------0---0---0---0---0---0---3---3--3

--------------------------------0---0---0---0---0---0---2---2---

 

Em  /   Eb+ /   G   /   Gb5 /   Cmaj7/   B7  /   Em  Bm7 Em  /  

----2-------2-------2-------2---2---2---2---2---2---2---2-------

---3---3---3---3---3---3---3---30---0---2---2---3---2---3-------

4-------3-------2-------1-------0---0---3---3--34---2---4-------

--------------------------------0---0---2---2---0---2---0-------

Em             Eb+               G    Gb5                  Cmaj7            C6           C7                       B7

Everybody wants to be a cat,        because a cat's the only cat   who knows where it's at.

Em               Eb+                      G         Gb5 Cmaj7                            B7              Em   Bm7 Em

Everybody's pickin' up on that feline  beat,         'cause everything else is obsolete.

 

    Am                 Am/G#                Am/G                  Am/F#           G

A square with a horn, makes you wish you weren't born,    every time he plays,

                 B7                                                                        Em  Am   B7    C   B7

But with a square in the act you can set music back to the caveman days.

Mike Gradwell

Ukulele and Classical Guitar Tuition

Contact

​Tel:  01524 941548

​Mail: mike.gradwell@gmail.com

 

Follow Mike
  • w-facebook
  • w-youtube