Eye Level

  /   F   /   /   /   Bb  /   /   /   F   /   /   /   Bb  /   /

----------0---0-0-----0-------------------0---0-0-----0---------

----0-1-------1-------1-------1---3---1-------1-------1-------1-

0-2---0-------0-------2---------------0-------0-------2---------

------2-------2-------3---------------2-------2-------3---------

 

  /   F   /   /   /   Bb  /   /   /   F   /   C   /   F   /   /

------------------------------------------------------0---------

----0-1---1-1-1---1-1-1-0-----------0-1---1---3-3-----1---------

0-2---0---------------2---2-0---0-2---0-----0-0-------0---------

------2---------------3---------------2-------0-------2---------

 

  /   F   /   Bb  /   C   / F /   /   Bb  /   C   /   F   /   /

------0---0-0-1---1---------0-----------------------------------

------1-------1---1---3-1-3-1---3-1-----------0-0-----1---------

------0-------2---2---0-----0---------2---2-2-0-------0---------

------2-------3---3---0-----2---------3-------0-------2---------

 

  /   F   /   /   /   Bb  /   /   /   C   /   /   /   F   /   /

--3-3-0---3-3-0---3---5-------------------1-1---1-----3---------

------1-------1-------6-8-6-5-6---6-6-3-------3-------1---------

------0-------0-------5-------5-------0-------0-------0---------

------2-------2-----------------------0-------0-------2---------

 

  /   F   /   /   /   Bb  /   /   /   C   /   /   /   C   /   /

--3-3-0---3-3-0---3---5-----------------------------------------

------1-------1-------6-8-----6-5---------1---1-1-----0---------

------0-------0-------5-------5---7-5-0-------0-0-----0---------

------2-------2-----------------------0-------0-0-----0---------

 

  /   F   /   /   /   Bb  /   /   /   F   /   C   /   F   /   /

------------------------------------------------------0---------

----0-1---1-1-1---1-1-1-0-----------0-1---1---3-3-----1---------

0-2---0---------------2---2-0---0-2---0-----0-0-------0---------

------2---------------3---------------2-------0-------2---------

 

  /   F   /   Bb  /   C   / F /   /   Bb  /   C   /   F   /   /

------0---0-0-1---1---------0-----------------------------------

------1-------1---1---3-1-3-1---3-1-----------0-0-----1---------

------0-------2---2---0-----0---------2---2-2-0-------0---------

------2-------3---3---0-----2---------3-------0-------2---------

 

  /   F   /   /   /   Bb  /   /   /   C   /   /   /   F   /   /

--3-3-0---3-3-0---3---5-------------------1-1---1-----3---------

------1-------1-------6-8-6-5-6---6-6-3-------3-------1---------

------0-------0-------5-------5-------0-------0-------0---------

------2-------2-----------------------0-------0-------2---------

  /   F   /   /   /   Bb  /   /   /   C   /   /   /   C   /   /

--3-3-0---3-3-0---3---5-------------------3---------------------

------1-------1-------6-8-----6-5---------0---------------------

------0-------0-------5-------5---7-5-0---0---------------------

------2-------2-----------------------0---0---------------------

 

  /   F   /   /   /   Bb  /   /   /   F   /   C   /   F   /   /

------------------------------------------------------0---------

----0-1---1-1-1---1-1-1-0-----------0-1---1---3-3-----1---------

0-2---0---------------2---2-0---0-2---0-----0-0-------0---------

------2---------------3---------------2-------0-------2---------

 

  /   F   /   Bb  /   C   / F /   /   Bb  /   C   /   F   /   /

------0---0-0-1---1---------0-----------------------------------

------1-------1---1---3-1-3-1---3-1-----------0-0-----1---------

------0-------2---2---0-----0---------2---2-2-0-------0---------

------2-------3---3---0-----2---------3-------0-------2---------

 

  /   F   /   /   /   Bb  /   /   /   C   /   /   /   F   /   /

--3-3-0---3-3-0---3---5-------------------1-1---1-----3---------

------1-------1-------6-8-6-5-6---6-6-3-------3-------1---------

------0-------0-------5-------5-------0-------0-------0---------

------2-------2-----------------------0-------0-------2---------

 

  /   F   /   /   /   Bb  /   /   /   C   /   /   /   C   /   /

--3-3-0---3-3-0---3---5-----------------------------------------

------1-------1-------6-8-----6-5---------1-0-------------------

------0-------0-------5-------5---7-5-0-----0-------------------

------2-------2-----------------------0-----0-------------------

 

  /   F   /   /   /   Bbm /   C   /   F   /   C   /   F   /   /

------------------------------------------------------0---------

----0-1---1-1-1---1-1-1-------------0-1---1---3-3-----1---------

0-2---0---------------1-3-1---0-0-2---0-----0-0-------0---------

------2---------------3-------0-------2-------0-------2---------

 

F   /   C   /   F   /   /

--------------------------

1---1---3-3-----1---------

0-----0-0-------0---------

2-------0-------2---------

Mike Gradwell

Ukulele and Classical Guitar Tuition

Contact

​Tel:  01524 941548

​Mail: mike.gradwell@gmail.com

 

Follow Mike
  • w-facebook
  • w-youtube